Dead Memories, Slipknot (tablatura)

Autor: ozmos_roses | 37726 visualizaciones



Dead Memories

saludos a toda la banda qe votaron por estaas tabluras para preguntas copien mi email:edmundo_loko@hotmail.com

Essa música pode ser tocada na afinação normal:EBGDAE!!!!!!!

E|--------------------------------------------------------------- 
B|---------------------------------------------------------------
G|---------------------------------------------------------------
D|-----2--5-----2--2--2-2--5-----2--2--2--2--3-----2--2--2-------
A|----2--5--3--2--2--2-2--5--3--2--2--2--2--3--5--2--2--2-2-5-3-2
E|---0--3--1--0--0----0--3--1--0--0----0--1--3--0--0------0-3-1-0

E|--------------------------------------------------------
B|--------------------------------------------------------
G|--------------------------------------------------------
D|-----2--5-----2--2--2-2--5-----2--2--2--2--3-----2--2--2
A|----2--5--3--2--2--2-2--5--3--2--2--2--2--3--5--2--2--2-       As duas guitarras juntas...
E|---0--3--1--0--0----0--3--1--0--0----0--1--3--0--0------

E|-------------------------------------------------------------------------------------------
B|-------------------------------------------------------------------------------------------
G|-------------------------------------------------------------------------------------------
D|-------------------------------------------------------------------------------------------
A|---2-2-2-5-5-5-3-3-2-2-2-2-2-2-2-2-2-2-2-5-5-5-3-3-2-2-2-2-2-2-2-2-2-2-2-3-3-3-5-5-0........
E|---0-0-0-3-3-3-1-1-0-0-0-0-0-0-0-0-0-0-0-3-3-3-1-1-0-0-0-0-0-0-0-0-0-0-0-1-1-1-3-3-2.......

E|-------------
B|-------------
G|-------------
D|--2-2-2-2-2-2
A--2-2-2-2-2-2
e|--0-0-0-0-0-0

E|-------------------------------------------------------------------------------------------
B|-------------------------------------------------------------------------------------------
G|-------------------------------------------------------------------------------------------
D|-------------------------------------------------------------------------------------------
A|---2-2-2-5-5-5-3-3-2-2-2-2-2-2-2-2-2-2-2-5-5-5-3-3-2-2-2-2-2-2-2-2-2-2-2-3-3-3-5-5-0........
E|---0-0-0-3-3-3-1-1-0-0-0-0-0-0-0-0-0-0-0-3-3-3-1-1-0-0-0-0-0-0-0-0-0-0-0-1-1-1-3-3-2.......

E|---------------
B|---------------
G|---------------
D|------9--------      
A|-------2-2-2-2-3333333      3X
E0-3-1--0-0-0-0-1111111
 
E na última vez...

E|---------------
B|---------------
G|---------------
D|------9--------      
A|-------2-2-2-2-33----1-3-0
E0-3-1--0-0-0-0-11-1-3

Refrão
 
E|---------------------------------------------------------------------------------------
B|---------------------------------------------------------------------------------------
G|-------------------------------4-4-4-4-4-4-4-4--------------------------------7-6---5-4
D|-------------------------------2-2-2-2-2-2-2-2--------------------------------5-4---3-2
A|2-2-2-2-2-2-2-2-5-5-5-5-5-5-5-5---------------2-2-2-2-2-2-2-2-5-5-5-5-5-5-5-5----------
E0-0-0-0-0-0-0-0-3-3-3-3-3-3-3-3---------------0-0-0-0-0-0-0-0-3-3-3-3-3-3-3-3----------

E|------------------------------------------------------------------------------
B|------------------------------------------------------------------------------
G|------------------------------------------------------------------------------
D|222222225555555333333332222211221122112222222222333333333555555222221122112211
A|------------------------------------------------------------------------------
E|------------------------------------------------------------------------------

E|---------------
B|---------------
G|---------------
D|------9--------      
A|-------2-2-2-2-3333333     
E0-3-1--0-0-0-0-1111111
 
E na última vez...
 
E|---------------
B|---------------
G|---------------
D|------9--------      
A|-------2-2-2-2-33----1-3-0
E0-3-1--0-0-0-0-11-1-3

Refrão
 
E|---------------------------------------------------------------------------------------
B|---------------------------------------------------------------------------------------
G|-------------------------------4-4-4-4-4-4-4-4--------------------------------7-6---5-4
D|-------------------------------2-2-2-2-2-2-2-2--------------------------------5-4---3-2
A|2-2-2-2-2-2-2-2-5-5-5-5-5-5-5-5---------------2-2-2-2-2-2-2-2-5-5-5-5-5-5-5-5----------
E0-0-0-0-0-0-0-0-3-3-3-3-3-3-3-3---------------0-0-0-0-0-0-0-0-3-3-3-3-3-3-3-3---------

E|------------------------------------
B|------------------------------------
G|------------------------------------
D|------------------------------------
A|------------------------------------
E|-0-0-7-7-0-0-7-7-0-0-7-0-0-7-7-0-0-7





Calificar esta versión:
Aviso: Este fichero es trabajo propio de su transcriptor y representa su interpretación personal de la canción. El material contenido en esta página es para exclusivo uso privado, por lo que se prohibe su reproducción o retransmisión, así como su uso para fines comerciales.
Más versiones de Dead Memories, Slipknot
Dead Memories
tablatura
Dead Memories (ver 2)
tablatura
Dead Memories (ver 3)
tablatura
Descubre más canciones de Slipknot