Before I Forget, Slipknot (tablatura) (ver 2)

Autor: maximum_the_ryu | 16590 visualizaciones



Intro

e|---------------------------------------|
B|---------------------------------------|
G|--------------------------x4-----------|
D|-0h2-0h2-3h2-0h2-3h2-------------------|
A|-0h2-0h2-3h2-0h2-3h2-------------------|
E|-0h2-0h2-3h2-0h2-3h2-------------------|

e|----------------------------------------------------------|
B|----------------------------------------------------------|
G|----------------------x3----------------------------------|
D|-0h2-0h2-3h2-0h2-3h2------0h2-0h2-0h2---5-5--0-0--5-5--0-0|
A|-0h2-0h2-3h2-0h2-3h2------0h2-0h2-0h2---5-5--0-0--5-5--0-0|
E|-0h2-0h2-3h2-0h2-3h2------0h2-0h2-0h2---5-5--0-0--5-5--0-0|

“GO!!!”

e|--------------------------------------------------|
B|--------------------------------------------------|
G|----------------------x3--------------------------| 
D|-0h2-0h2-3h2-0h2-3h2------0h2-0h2-0h2----5-5--0-0-|  
A|-0h2-0h2-3h2-0h2-3h2------0h2-0h2-0h2----5-5--0-0-| 
E|-0h2-0h2-3h2-0h2-3h2------0h2-0h2-0h2----5-5--0-0-|

e|-----------------------------------------------------------|
B|-----------------------------------------------------------|
G|----------------------x3-----------------------------------| 
D|-0h2-0h2-3h2-0h2-3h2------0h2-0h2-0h2----5-5--0-0--5-5--0-0|  
A|-0h2-0h2-3h2-0h2-3h2------0h2-0h2-0h2----5-5--0-0--5-5--0-0| 
E|-0h2-0h2-3h2-0h2-3h2------0h2-0h2-0h2----5-5--0-0--5-5--0-0|

e|------------------------------------------------------| 
B|------------------------------------------------------|   
G|----------------------x3------------------------------|   
D|-2-2-2-2-3--2-2-2-3--------2-2-2-2-3---5-5-0-0--------| X4
A|-2-2-2-2-3--2-2-2-3--------2-2-2-2-3---5-5-0-0--------|  
E|-2-2-2-2-3--2-2-2-3--------2-2-2-2-3---5-5-0-0--------| 


e|----------------------------------|
B|----------------------------------|
G|--6-------9-------8-------7-------|
D|--6-------9-------8-------7-------|
A|--4-------7-------6-------5-------|
E|----------------------------------|


e|----------------------------------|
B|----------------------------------|
G|----------------------------------|
D|-0----0-3--5--0-3--5--0--8--7-----|X2
A|-0----0-3--5--0-3--5--0--8--7-----|
E|-0----0-3--5--0-3--5--0--8--7-----|

e|----------------------------------|
B|----------------------------------|
G|----------------------------------|
D|-0----0-3--5--0-3--5--0--8--7--7--7-9-7-10-5--5--5-5--8-7----|
A|-0----0-3--5--0-3--5--0--8--7--7--7-9-7-10-5--5--5-5--8-7----|
E|-0----0-3--5--0-3--5--0--8--7--7--7-9-7-10-5--5--5-5--8-7----|

e|----------------------------------|
B|----------------------------------|
G|----------------------------------|
D|-0----0-3--5--0-3--5--0--8--7-----|X2
A|-0----0-3--5--0-3--5--0--8--7-----|
E|-0----0-3--5--0-3--5--0--8--7-----|

e|----------------------------------|
B|----------------------------------|
G|----------------------------------|
D|-0----0-3--5--0-3--5--0--8--7--7--7-9-7-10-5--5--5-5--8-7----|
A|-0----0-3--5--0-3--5--0--8--7--7--7-9-7-10-5--5--5-5--8-7----|
E|-0----0-3--5--0-3--5--0--8--7--7--7-9-7-10-5--5--5-5--8-7----|

e|--------------------------------------------------|
B|--------------------------------------------------|
G|----------------------x3--------------------------| 
D|-0h2-0h2-3h2-0h2-3h2------0h2-0h2-0h2----5-5--0-0-|  
A|-0h2-0h2-3h2-0h2-3h2------0h2-0h2-0h2----5-5--0-0-| 
E|-0h2-0h2-3h2-0h2-3h2------0h2-0h2-0h2----5-5--0-0-|

e|------------------------------------------------------| 
B|------------------------------------------------------|   
G|----------------------x3------------------------------|   
D|-2-2-2-2-3--2-2-2-3--------2-2-2-2-3---5-5-0-0--------| X2 
A|-2-2-2-2-3--2-2-2-3--------2-2-2-2-3---5-5-0-0--------|  
E|-2-2-2-2-3--2-2-2-3--------2-2-2-2-3---5-5-0-0--------| 


e|----------------------------------|
B|----------------------------------|
G|--6-------9-------8-------7-------|
D|--6-------9-------8-------7-------|
A|--4-------7-------6-------5-------|
E|----------------------------------|

e|----------------------------------|
B|----------------------------------|
G|----------------------------------|
D|-0----0-3--5--0-3--5--0--8--7-----|X2
A|-0----0-3--5--0-3--5--0--8--7-----|
E|-0----0-3--5--0-3--5--0--8--7-----|

e|----------------------------------|
B|----------------------------------|
G|----------------------------------|
D|-0----0-3--5--0-3--5--0--8--7--7--7-9-7-10-5--5--5-5--8-7----|
A|-0----0-3--5--0-3--5--0--8--7--7--7-9-7-10-5--5--5-5--8-7----|
E|-0----0-3--5--0-3--5--0--8--7--7--7-9-7-10-5--5--5-5--8-7----|

e|----------------------------------|
B|----------------------------------|
G|----------------------------------|
D|-0----0-3--5--0-3--5--0--8--7-----|X2
A|-0----0-3--5--0-3--5--0--8--7-----|
E|-0----0-3--5--0-3--5--0--8--7-----|

e|----------------------------------|
B|----------------------------------|
G|----------------------------------|
D|-0----0-3--5--0-3--5--0--8--7--7--7-9-7-10-5--5--5-5--8-7----|
A|-0----0-3--5--0-3--5--0--8--7--7--7-9-7-10-5--5--5-5--8-7----|
E|-0----0-3--5--0-3--5--0--8--7--7--7-9-7-10-5--5--5-5--8-7----|

e|--------------------------------------------------------------|
B|--------------------------------------------------------------|
G|--------------------------------------------------------------|
D|--------------------------------------------------------------|  x2
A|-7--7-7-7-7-7--6--7-7-7-7-7-7--6--7-7-7-7-7--7--6--7--9--7----|
D|--------------------------------------------------------------|

e|---------------------------------------------------------------------------|
B|---------------------------------------------------------------------------|
G|---------------------------------------------------------------------------|
D|---------------------------------------------------------------------------|
A|-/14--12-11--9-12-11-9--7-11-9-6--7-9-6--7-7-7-7-7-7--6--7-7-7-7-7-7-7--6--|
D|---------------------------------------------------------------------------|

e|-----------------------------|
B|-----------------------------|
G|-----------------------------|
D|-----------------------------|
A|-7-7-7-7-7-7-6--7-9-7-11-9---|
D|-----------------------------|

e|------------------------------------------------------------------|
B|------------------------------------------------------------------|
G|------------------------------------------------------------------|
D|------------------------------------------------------------------|
A|-3-4-3-4-6-3-4-3-4-3-4-6-3-4--3-4-3-4-6-3-4-3-4-3-4-6-3-4---------|
D|------------------------------------------------------------------|

e|----------------------------------|
B|----------------------------------|
G|----------------------------------|
D|-0----0-3--5--0-3--5--0--8--7-----|X2
A|-0----0-3--5--0-3--5--0--8--7-----|
E|-0----0-3--5--0-3--5--0--8--7-----|

e|----------------------------------|
B|----------------------------------|
G|----------------------------------|
D|-0----0-3--5--0-3--5--0--8--7--7--7-9-7-10-5--5--5-5--8-7----|
A|-0----0-3--5--0-3--5--0--8--7--7--7-9-7-10-5--5--5-5--8-7----|
E|-0----0-3--5--0-3--5--0--8--7--7--7-9-7-10-5--5--5-5--8-7----|

e|----------------------------------|
B|----------------------------------|
G|----------------------------------|
D|-0----0-3--5--0-3--5--0--8--7-----|X2
A|-0----0-3--5--0-3--5--0--8--7-----|
E|-0----0-3--5--0-3--5--0--8--7-----|

e|----------------------------------|
B|----------------------------------|
G|----------------------------------|
D|-0----0-3--5--0-3--5--0--8--7--7--7-9-7-10-5--5--5-5--8-7----|
A|-0----0-3--5--0-3--5--0--8--7--7--7-9-7-10-5--5--5-5--8-7----|
E|-0----0-3--5--0-3--5--0--8--7--7--7-9-7-10-5--5--5-5--8-7----|

e|----------------------------------|
B|----------------------------------|
G|----------------------------------|
D|-0----0-3--5--0-3--5--0--8--7-----|X2
A|-0----0-3--5--0-3--5--0--8--7-----|
E|-0----0-3--5--0-3--5--0--8--7-----|

e|----------------------------------|
B|----------------------------------|
G|----------------------------------|
D|-0----0-3--5--0-3--5--0--8--7--7--7-9-7-10-5--5--5-5--8-7----|
A|-0----0-3--5--0-3--5--0--8--7--7--7-9-7-10-5--5--5-5--8-7----|
E|-0----0-3--5--0-3--5--0--8--7--7--7-9-7-10-5--5--5-5--8-7----|

e|----------------------------------------------------------|
B|----------------------------------------------------------|
G|----------------------x6----------------------------------|
D|-0h2-0h2-3h2-0h2-3h2------0h2-0h2-0h2---5-5--0-0--5-5--0-0|
A|-0h2-0h2-3h2-0h2-3h2------0h2-0h2-0h2---5-5--0-0--5-5--0-0|
E|-0h2-0h2-3h2-0h2-3h2------0h2-0h2-0h2---5-5--0-0--5-5--0-0|









Comentarios del colaborador: esta version es mas mejorada q la anterior y esta da la prioridad de q los temas de slipknot se pueden tocar con solo 1 guitarra si sabes ahcer tiempos mas rapidos , asta la otra

Calificar esta versión:
Aviso: Este fichero es trabajo propio de su transcriptor y representa su interpretación personal de la canción. El material contenido en esta página es para exclusivo uso privado, por lo que se prohibe su reproducción o retransmisión, así como su uso para fines comerciales.
Más versiones de Before I Forget, Slipknot
Before I Forget
tablatura
Before I Forget (ver 2)
tablatura
Before I Forget (ver 3)
tablatura
Before I Forget (ver 4)
tablatura
Before I Forget (ver 5)
tablatura
Before I Forget (ver 6)
tablatura
Before I Forget (ver 7)
tablatura
Descubre más canciones de Slipknot