Dragones, Skay Beilinson (tablatura)

Autor: Anónimo | 43292 visualizaciones

INTRO:

       RE
e|---2---------------------------------------------|
B|---3---------------------------------------------|
G|---2---------------------------------------------|
D|---0-0-00-00-0000-00-00-0000-0000-000-0000-------|
A|-------------------------------------------------|
E|-------------------------------------------------|
       Pm.. .. ... .. .. ... ... .. .. .. ..

RIFF  X 2:
e|--------------------------------------------|----------------------------------------------|
B|--------------------------------------------|----------------------------------------------|
G|---0-2-------4-2-0-2------0--0--2---0---0---|---0-2-----4-2-0-2------0---0--2-----0----0---|
D|-4-----4-0------------4-0---4-----4---4---4~|-4----4-0----------4-0----4-------4-----4-----|
A|--------------------------------------------|--------------------------------------------5~|
E|--------------------------------------------|----------------------------------------------|

VERSO 1:

Tiene cara de mosca, oreja de chancho, pata de cabra
Trompa de elefante y culo de mandril.

RIFF X 1

VERSO 2:

Tiene su morada en el alma de los hombres
Es su territorio, es su casa y su jardín.

RIFF X 1

ESTRIBILLO:

El cabrón acecha tu castillo
Lame las puertas de tu corazón
Mira tus ojos, roba su brillo,
Deja su mueca y su aliento de dragón.

ESTRIBILLO:
      LA     SOL      LA       SOL      LA          SOL      LA
e|----5--|--------------5---|--------------5---|--------------5---|
B|----5--|--------------5---|--------------5---|--------------5---|
G|----6--|--------------6---|--------------6---|--------------6---|
D|----7--|--5/7----7----7---|--5/7----7----7---|--5/7----7----7---|
A|----7--|--5/7----7----7---|--5/7----7----7---|--5/7----7----7---|
E|----5--|--3/5----5----5---|--3/5----5----5---|--3/5----5----5---|


RIFF X 1

(PUENTE) X 2:

       RE m
e|------------------------------|
B|------------------------------|
G|--2-2---2-2---2-2---2-4-2-0---|
D|------0-----0-----0-----------|
A|------------------------------|
E|------------------------------|


SOLO CON BASE DE Rem:
e|------------------------------------------|---------------------------------------|
B|------------------------------------------|---------------------------------------|
G|------------2-0---------------------------|-------------2-0-----------------------|
D|--0-2-3-2-0-------2-3-0---0-2----2-0-3-0--|--0-2-3-2-0-------2-3-0---0-2---5-3-0--|
A|------------------------4-----4-----------|------------------------4-----4--------|
E|------------------------------------------|---------------------------------------|

RIFF X 1

VERSO 3:

Dicen que lo han visto la otra noche, la otra noche,
Todo cubierto de barro recorriendo la ciudad.

RIFF X 1

ESTRIBILLO:

El cabrón acecha tu castillo
Lame las puertas de tu corazón
Mira tus ojos, roba su brillo,
Deja su mueca y su aliento de dragón.


FINAL CON RIFF X 2

espero que les guste el tema esta muy bueno y no es muy dificil
¡aguanten los redondos!la mejor pasión
y tambien aguante skay y por supesto el indio!!!

¡¡Zippo!!
Calificar esta versión:
Aviso: Este fichero es trabajo propio de su transcriptor y representa su interpretación personal de la canción. El material contenido en esta página es para exclusivo uso privado, por lo que se prohibe su reproducción o retransmisión, así como su uso para fines comerciales.
Más versiones de Dragones, Skay Beilinson
Dragones
acordes
Dragones
tablatura
Dragones (ver 2)
tablatura
Dragones (ver 3)
tablatura
Descubre más canciones de Skay Beilinson