Aquí, Sin Bandera (tablatura) (ver 2)

Autor: Anónimo | 14347 visualizaciones

Tema; "Aqui"
Autor: M y L Noel Schajiris
Banda: Sin Bandera
Disco: De Viaje

Para tocar esta cancion es necesario el capotrasto
en el tercer
trasto,
basaré los acordes como si estuviese en el primer
 trasto para mas
facilidad..

INTRO

e--------------------------
b---3--6--4-3-------3------
g-------------3-3/5--------
D--------------------------
A---3----------------------
E--------------------------

e--------------------------
b---3--6--4-3--------------
g-------------3-3/5--------
D-------------------5------
A---3----------------------
E--------------------------


e---------------------------
b---3--6--4-3-------3-------
g-------------3-3/5---------
D---------------------------
A---3-----------------------
E---------------------------


e---------------------------
b-------3-4-3---------------
g---3-5-----------3---------
D---------------------------
A-------------------4--4/6--
E---------------------------

-----------------------------------------------
ACORDES:
  Cm        A#       D#-A/E    D#D/F     X
e--3---   e-x----  e--3----  e--x----  e-5-
b--4---   b-3----  b--4----  b--6----  b-4-
g--5---   g-3----  g--3----  g--3----  g-5-
D--5---   D-3----  D--5----  D--3----  D-3-
A--3---   A-5----  A--6----  A--5----  A-x-
E--x---   E-6----  E--x----  E--x----  E-x-
:Am        :G7       :C    :B/D(notas) :D7


  A#       X2     Gm     Cm7/D
e--5--    e-6-   e-3-   e--3--
b--5--    b-6-   b-3-   b--4--
g--3--    g-5-   g-3-   g--3--
D--5--    D-3-   D-5-   D--3--
A--6--    A-3-   A-5-   A--5--
E--x--    E-5-   E-3-   E--x--
  :G      D/F#    E      Am7/B
------------------------------------------------
* si la van a tocar en el tercer trasto (que seria mas comodo)
debajo de los acordes les dejo los equivalentes, para hacerlo
mas facil...  B/D (es la nota B en cuerda A 2do trasto
y D es la nota
D de LA cuerda B en el 3er trasto).

*Nota; pondre los acordes como si estuviesemos
 en el primer trasto...

3er Trasto;                                          E------
     Am      G7          Am              G7   seg 28 B---6 -
Estas aquí cada mañana en mi forma de hablar         g----5-
     Am     G7                 Am              G7
en cada poro de mi alma ***, siempre conmigo vas.
    Am         G7
Te has vuelto parte de mi cuerpo,
 Am           G7
sueño a través de ti,
  Am        G7               Am               G7
Tu aroma llena mi universo y la vida me hace feliz.
       C       B/D
Vives aquí, iluminándome
      Am             C         D7
Mostrándome que hay mucho por vivir
          G
Dentro de mi,
        D/F#              E
siempre puedo escuchar tu voz,
  Am7   Am7/B   C     B/D  Am
hablándome de amor, aquí, aquí,
   C           D7     G
Murmurándo dentro de mí,
    D/F#           E
va creciendo tu pasión,
    Am7 Am7/B  C        B/D    Am
tu fuerza tu emoción, aquí, aquí,

        C      D7       (Intro)
aunque tú no estés ... aquí.
  Am        G7                    Am         G7
Me siento triste y tú apareces y vuelvo a sonreír,
  Am        G7                     Am                   G7
Siento este amor por ti que crece y sé que nunca te vas a ir.

Vives aquí...
Dentro de mi...

Solo:

e------------------------------------6-8-------------------
b--6-4-3-----3-------------------6/8-----6/8------9--6/7-7-
g--------3-5----5-3----3/5-------------------6-8-----------
D--------------------3-----3-3-5---------------------------
A-3--------------------------------------------------------
E----------------------------------------------------------

e-------------------------------------------
b-----6--3/4-4-3-4-3-6--8/11----------------
g-3-5------------------------8/10-----------
D---------------------------------8/10------
A--------------------------------------8/10-
E-------------------------------------------


Arreglos;

seg 28     seg 33 (armonicos)      seg 38
e----       e-17- con 7            e-6/8
b-6--       b-17- con 7            b-6/8
g--5-       g---                   g----

con todos los demas juegan con los acordes...
Quiero pedirles disculpas por como les trate de acomodar los
acordes, pues es dificil tratar de traducir lo que tocas aca
de este lado
,si tienen alguna duda please,, fer_diazp@hotmail.com


------------------------------------------------------------
Gente muchas gracias por al menos ver y abrir esta pequeña,
pero afectiva transcripcion de una banda que, en mi opinion,
 tuvo
grandes composiciones, escuchen mucho a Leonel Garcia...
Quiero dedicarle esta cancion, aunque sea la primera ves,
 A Karen
"por que sabes que tu eres la unica que habla
 el lenguaje de mi alma"
...te extrañare tanto...
Aviso: Este fichero es trabajo propio de su transcriptor y representa su interpretación personal de la canción. El material contenido en esta página es para exclusivo uso privado, por lo que se prohibe su reproducción o retransmisión, así como su uso para fines comerciales.

Comentarios en Facebook: