Aquí, Sin Bandera (tablatura)

Autor: Anónimo | 41319 visualizaciones

Bueno, hola otra vez, vuelvo con algo de sin bandera, este es el
principio que se toca en el piano pero yo lo transcribí para
la guitarra, espero y les guste, está muy sencillo.
Esto lo hice en 10 minutos así que si tengo algún error me
encantaría que me lo hicieran saber a mi correo... bye

E ---------------------------------I
A ---------------------------------I
D ---------------------------------I
G ---------------------------------I
B ---------------8--10-------------I
e --8--10--8--7---------7----------I

E ---------------------------------I
A ---------------------------------I
D ---------------------------------I
G ---------------------------------I
B ---------------8--6--------------I
e --8--10--8--7--------------------I

E ---------------------------------I
A ---------------------------------I
D ---------------------------------I
G ---------------------------------I
B ---------------8--10-------------I
e --8--10--8--7---------7----------I

E ---------------------------------I
A ---------------------------------I
D ---------------------------------I
G ---------------------------------I
B --8--10--------------8--6--------I
e --------8--10--8--7--------------I

Gracias, quisiera por último aclarar que lo que me inspiró a sacar este
pequeño fragmento de la canción fue la muerte de un amigo
el pasado 26 de abril del 2003... 'monillo' esto es para ti
Aviso: Este fichero es trabajo propio de su transcriptor y representa su interpretación personal de la canción. El material contenido en esta página es para exclusivo uso privado, por lo que se prohibe su reproducción o retransmisión, así como su uso para fines comerciales.

Comentarios en Facebook: