Save You, Simple Plan (acordes) (ver 2)

Autor: leo_cr9 | 22103 visualizaciones

asosbcmdsosgsos
Cm	   G#
take a breath,
       D#	    A#
I?ll pull myself together.
       Cm      G#     D#               A#
Just another step until I reach the door
	      Cm	G#
you?ll never know the way,
      D#		   A#
it tears me up inside to see you
G#
ohh, ohh
   A#
I wish that I could tell you something 
G#
ohh, ohh
A#
to take it all away.


D#			   A#
Sometimes I wish I could save you
             Cm			    G#
and there?s so many things that I want you know
D#			    A#
I won?t give up till it?s over
         Cm		    G#
if it takes you forever, I want you to know


          Cm        G#
when I hear your voice,
         D#		A#
it?s drowning in the whispers
             Cm	     G#
your just skin and bones
             D#		  A#
there?s nothing left to take
                 Cm   G#
and no matter what I do
D#		    A#
I can?t make you feel better


G#
ohh, ohh
A#
if only I could find the answer
G#
ohh, ohh
A#
to help me understand


D#			   A#
Sometimes I wish I could save you
             Cm			    G#
and there?s so many things that I want you know
D#			    A#
I won?t give up till it?s over
         Cm		    G#
if it takes you forever, I want you to know


       G#              A#
[that] if you fall, stumble down,
D#		Cm
I?ll pick you up off the ground.
G#	       A#
If you lose faith in you,
D#		 Cm
I?ll give you strength to pull through.
G#	      A#
Tell me you won?t give up,
G#		 Cm		   B
cause I?ll be waiting here if you fall
A#         D#
you know I?ll be there for you

	
     Cm           G#		D#	 A#
E|--------------0---------------------------------|
B|----3--1---------1---------1-----3----1--1------|
G|-0----------0-----------0-----0-----------------|
D|------------------------------------------------|
A|------------------------------------------------|
E|------------------------------------------------|

     Cm           G#	D#		A#
E|--------------0------0--1--0--------------------|
B|----3--1---------1------------3-----------------|
G|-0----------0-----------------------------------|
D|------------------------------------------------|
A|------------------------------------------------|
E|------------------------------------------------|

	Cm        G#		D#	 A#
E|--------------0--------------------0------------|
B|----3--1---------1---------1----3-----3--1------|
G|-0----------0-----------0----0------------------|
D|------------------------------------------------|
A|------------------------------------------------|
E|------------------------------------------------|


G#
ohh, ohh
A#
if only I could find the answer,
G#
ohh, ohh
A#
to take it all away


D#			   A#
Sometimes I wish I could save you
             Cm			    G#
and there?s so many things that I want you know
D#			    A#
I won?t give up till it?s over
         Cm		    G#
if it takes you forever, I want you to know


D#
ohh, ohh
     	         A#
I wish I could save you...
Cm
ohh, ohh
     G#
I want you to know...
D#
Ohh, ohh
    		 A#
I wish I could save you... 

Cm G# D#
Calificar esta versión:
Aviso: Este fichero es trabajo propio de su transcriptor y representa su interpretación personal de la canción. El material contenido en esta página es para exclusivo uso privado, por lo que se prohibe su reproducción o retransmisión, así como su uso para fines comerciales.
Más versiones de Save You, Simple Plan
Save You
acordes
Save You (ver 2)
acordes
Descubre más canciones de Simple Plan