Save You, Simple Plan (acordes)

Autor: dunkelvolk | 34237 visualizaciones

ambbcfg
Aca les va otra de simple plan muy buenaaa..y facil

ARPGIOS:[esto durante el rasgue delos acordes]
                             Am		F		 C		   G
E|------------------|--------------------------------------------------------------------------|
B|------------------|--------------1------------1------------1------------3--------------------|
G|------------------|---------------------------------------------------------------x3---------|
D|---------0-0-0-0--|-----------2------------3-----------2------------0------------------------|
A|------------------|--------0------------------------3----------------------------------------|
E|------------------|--------------------1------------------------3----------------------------|



Am	   F
take a breath,
       C	    G
I’ll pull myself together.
       Am      F     C               G
Just another step until I reach the door
	      Am	F
you’ll never know the way,
      C		   G
it tears me up inside to see you
F
ohh, ohh
   G
I wish that I could tell you something 
F
ohh, ohh
G
to take it all away.


C			   G
Sometimes I wish I could save you
             Am			    F
and there’s so many things that I want you know
C			    G
I won’t give up till it’s over
         Am		    F
if it takes you forever, I want you to know


          Am        F
when I hear your voice,
         C		G
it’s drowning in the whispers
             Am	     F
your just skin and bones
             C		  G
there’s nothing left to take
                 Am   F
and no matter what I do
C		    G
I can’t make you feel better


F
ohh, ohh
G
if only I could find the answer
F
ohh, ohh
G
to help me understand


C			   G
Sometimes I wish I could save you
             Am			    F
and there’s so many things that I want you know
C			    G
I won’t give up till it’s over
         Am		    F
if it takes you forever, I want you to know


       F              G
[that] if you fall, stumble down,
C		Am
I’ll pick you up off the ground.
F	       G
If you lose faith in you,
C		 Am
I’ll give you strength to pull through.
F	      G
Tell me you won’t give up,
F		 Am		   Bb
cause I’ll be waiting here if you fall
G          C
you know I’ll be there for you

	
     Am           F		C	 G
E|--------------0---------------------------------|
B|----3--1---------1---------1-----3----1--1------|
G|-0----------0-----------0-----0-----------------|
D|------------------------------------------------|
A|------------------------------------------------|
E|------------------------------------------------|

     Am           F	C		G
E|--------------0------0--1--0--------------------|
B|----3--1---------1------------3-----------------|
G|-0----------0-----------------------------------|
D|------------------------------------------------|
A|------------------------------------------------|
E|------------------------------------------------|

	Am        F		C	 G
E|--------------0--------------------0------------|
B|----3--1---------1---------1----3-----3--1------|
G|-0----------0-----------0----0------------------|
D|------------------------------------------------|
A|------------------------------------------------|
E|------------------------------------------------|


F
ohh, ohh
G
if only I could find the answer,
F
ohh, ohh
G
to take it all away


C			   G
Sometimes I wish I could save you
             Am			    F
and there’s so many things that I want you know
C			    G
I won’t give up till it’s over
         Am		    F
if it takes you forever, I want you to know


C
ohh, ohh
     	         G
I wish I could save you...
Am
ohh, ohh
     F
I want you to know...
C
Ohh, ohh
    		 G
I wish I could save you... 

Am F C


Creditos...[RyG]
Calificar esta versión:
Aviso: Este fichero es trabajo propio de su transcriptor y representa su interpretación personal de la canción. El material contenido en esta página es para exclusivo uso privado, por lo que se prohibe su reproducción o retransmisión, así como su uso para fines comerciales.
Más versiones de Save You, Simple Plan
Save You
acordes
Save You (ver 2)
acordes
Descubre más canciones de Simple Plan