Ciega Sordomuda, Shakira (tablatura)

Autor: Anónimo | 43408 visualizaciones



La afinacion de las guitarras es normal...

Gtr I   (E A D G B E) - Guitarra
Gtr II  (E A D G B E) - Trompeta Mariachi
Gtr III (E A D G B E) - Guitarra 
Gtr IV  (E A D G B E) - Guitarra Nylon

  Q=120
 4/4
  Gtr I
  W          S  E. +Q    +H
|----------|-----------------------|
|----------|----1--(1)---(1)-------|
|----------|----2--(2)---(2)-------|
|----------|----3--(3)---(3)-------|
|----------|-3---------------------|
|----------|-1---------------------|
|
| Gtr II
| W          Q.        E  Q.   S S
|----------|-----------1--1----5---|
|----------|-1---------------------|
|----------|-----------------------|
|----------|-----------------------|
|----------|-----------------------|
|----------|-----------------------|
|
| Gtr IV
| W          S  E. +Q    +H
|----------|-----------------------|
|----------|----1--(1)---(1)-------|
|----------|----2--(2)---(2)-------|
|----------|----3--(3)---(3)-------|
|----------|-3---------------------|
|----------|-1---------------------|


  +W                       S E.   +Q      +H
|------------------------|-------------------------------|
|-(1)--------------------|---1----(1)-----(1)------------|
|-(2)--------------------|---0----(0)-----(0)------------|
|-(3)--------------------|---2----(2)-----(2)------------|
|------------------------|-3-----------------------------|
|------------------------|-3-----------------------------|
|
|  Q.   S S E. S +S  E S   W
|--5---------------------|-------------------------------|
|-------6---6--5-(5)-6---|-5-----------------------------|
|------------------------|-------------------------------|
|------------------------|-------------------------------|
|------------------------|-------------------------------|
|------------------------|-------------------------------|
|
| +W                       S E  S +S  S E  S  E S S S E
|------------------------|------3-(3)---3-----3---1---1--|
|-(1)--------------------|---1--5-(5)---5-----5-3-----3--|
|-(2)--------------------|---0---------------------------|
|-(3)--------------------|---2---------------------------|
|------------------------|-3-----------------------------|
|------------------------|-3-----------------------------|


  +W                            S  E. +Q      +H
|-----------------------------|-----------------------|
|-(1)-------------------------|----1--(1)-----(1)-----|
|-(0)-------------------------|----2--(2)-----(2)-----|
|-(2)-------------------------|----3--(3)-----(3)-----|
|-----------------------------|-3---------------------|
|-----------------------------|-1---------------------|
|
| +S  S E   Q     H             Q.        S S  Q.   E
|-----------------------------|---------------------5-|
|-(5)-------------------------|-----------6----6------|
|-----------------------------|-5---------------------|
|-----------------------------|-----------------------|
|-----------------------------|-----------------------|
|-----------------------------|-----------------------|
|
|  S  E   S S S E S E S S S E   S  E. +Q      +H
|-----1-----0---0---0-----0---|-----------------------|
|-----3---1-----1-1-----0-3---|-1--1--(1)-----(1)-----|
|-----------------------------|-2--2--(2)-----(2)-----|
|-----------------------------|----3--(3)-----(3)-----|
|-----------------------------|-3---------------------|
|-----------------------------|-1---------------------|


  +W                         +S  S E E S S S S S S E S S
|--------------------------|-------------------------------|
|-(1)----------------------|-(1)---------1---1-----1-------|
|-(2)----------------------|-(2)---0-0-0-0-0-0-0---0-0-----|
|-(3)----------------------|-(3)---2-2-2-2-2-2-2---2-2-----|
|--------------------------|-------3-3-3---3---3-----3-----|
|--------------------------|-------------------------------|
|
|  Q.       S S E. S +E  E    W
|--5-----------------------|-------------------------------|
|-----------6---6--5-(5)---|-------------------------------|
|------------------------5-|--5----------------------------|
|--------------------------|-------------------------------|
|--------------------------|-------------------------------|
|--------------------------|-------------------------------|
|
| +S  S E Q     H             W
|--------------------------|-------------------------------|
|-(1)----------------------|-------------------------------|
|-(2)----------------------|-------------------------------|
|-(3)----------------------|-------------------------------|
|--------------------------|-------------------------------|
|--------------------------|-------------------------------|


  E E E S S  S S S S  E     S S    E     E   E  S S   S  S S S E E
|-------------------------------|----------------------------------|
|---------1----1------1---------|-----------------1------1-----1---|
|---0-0-0-0--0-0-0----0-----0---|--------2---2--2-2---2--2-2---2-2-|
|---2-2-2-2--2-2-2----2-----2---|--------3---3--3-3---3--3-3---3-3-|
|---3-3-3----3---3----------3---|--------3---3--3-----3----3-----3-|
|-------------------------------|----------------------------------|
|
| E E E E    E   S S +S   E   S    S  E.    +Q       +H
|---8---8---10-----8-(8)--------|----------------------------------|
|------------------------10-----|-12-13----(13)-----(13)-----------|
|-------------------------------|-15-------------------------------|
|-------------------------------|----------------------------------|
|-------------------------------|----------------------------------|
|-------------------------------|----------------------------------|


    E     E   E     S S  S S S  S   E     E
|-------------------------------------------|
|---------------------1----1--------1-------|
|---------2---2-----2-2--2-2-2------2-----2-|
|---------3---3-----3-3--3-3-3------3-----3-|
|---------3---3-----3----3---3------------3-|
|-------------------------------------------|
|
|  +S  S  E  +S  S  E    E   S  S  +S  S  E
|-------------------------------------------|
|-(13)---13-(13)---13---15-----13-(13)------|
|----------------------------------------14-|
|-------------------------------------------|
|-------------------------------------------|
|-------------------------------------------|


   E E   E     S S S S S S E S S    E  E E S S  S  S S S E S S
|--------------------------------|-----------------------------|
|----------------1---1-----1-----|-----------1-----1-----1-----|
|----0---0-----0-0-0-0-0---0-0---|-----0-0-0-0--0--0-0---0-0---|
|----2---2-----2-2-2-2-2---2-2---|-----2-2-2-2--2--2-2---2-2---|
|----3---3-----3---3---3-----3---|-----3-3-3----3----3-----3---|
|--------------------------------|-----------------------------|
|
|  Q    +S  S  E   H               +H          +H
|--------------------------------|-----------------------------|
|--------------------------------|-----------------------------|
|-12---(12)---10---9-------------|-(9)---------(9)-------------|
|--------------------------------|-----------------------------|
|--------------------------------|-----------------------------|
|--------------------------------|-----------------------------|


  E E E S S  S S S  S   E    E
|---------------------------------|
|---1-----1----1--------1---------|
|---2-2-2-2--2-2-2------2----2----|
|---3-3-3-3--3-3-3------3----3----|
|-----3-3----3---3-----------3----|
|---------------------------------|
|
| H          E   S  S  +S  S S S
|---------------------------------|
|----------------------------8----|
|-----------10-----10-(10)--------|
|---------------------------------|
|---------------------------------|
|---------------------------------|


  E    E   E  S S   S  S S S E E
|--------------------------------|
|---------------1------1-----1---|
|------2---2--2-2---2--2-2---2-2-|
|------3---3--3-3---3--3-3---3-3-|
|------3---3--3-----3----3-----3-|
|--------------------------------|
|
| S S  E  +Q       +H
|--------------------------------|
|-9---10-(10)-----(10)-----------|
|--------------------------------|
|--------------------------------|
|--------------------------------|
|--------------------------------|
|
| Gtr IV
| W
|--------------------------------|
|--------------------------------|
|--------------------------------|
|--------------------------------|
|--------------------------------|
|--------------------------------|


    E    E E   S S S S S S  E    S S    E    E  E  S S S S S S E S S
|------------------------------------|---------------------------------|
|----------------1---1------1--------|---------------1---1-----1-------|
|--------0-0---0-0-0-0-0----0----0---|-------0--0--0-0-0-0-0---0-0-----|
|--------2-2---2-2-2-2-2----2----2---|-------2--2--2-2-2-2-2---2-2-----|
|--------3-3---3---3---3---------3---|-------3--3--3---3---3-----3-----|
|------------------------------------|---------------------------------|
|
|  +S  S E Q       H                    W
|------------------------------------|---------------------------------|
|-(10)-------------------------------|---------------------------------|
|------------------------------------|---------------------------------|
|------------------------------------|---------------------------------|
|------------------------------------|---------------------------------|
|------------------------------------|---------------------------------|
|
|   E    E S S E   E   S S +S  S S S   +S  S E +Q      H
|--------3---0-3---3-----1-(1)-----0-|-(0)-0-3-(3)---------------------|
|--------5---------5-----3-(3)---1---|-------6-(6)---------------------|
|------------------------------------|---------------------------------|
|------------------------------------|---------------------------------|
|------------------------------------|---------------------------------|
|------------------------------------|---------------------------------|


  E E E S S S S S S E E   E E E S S S S S S E E
|-----------------------|-----------------------|
|---------1---1-----1---|---0-0-0-3---3-----3---|
|---2-2-2-2-2-2-2---2-2-|---0-0-0-4-4-4-4---4-4-|
|---3-3-3-3-3-3-3---3-3-|---0-0-0-5-5-5-5---5-5-|
|---3-3-3---3---3-----3-|-----------5---5-----5-|
|-----------------------|-----------------------|
|
| Gtr IV
| W                       W
|-----------------------|-----------------------|
|-----------------------|-----------------------|
|-----------------------|-----------------------|
|-----------------------|-----------------------|
|-----------------------|-----------------------|
|-----------------------|-----------------------|


  E E    E    S S S S S S E   S S
|---------------------------------|
|---------------1---1-----1-------|
|---0----0----0-0-0-0-0---0---0---|
|---2----2----2-2-2-2-2---2---2---|
|---3----3----3---3---3-------3---|
|---------------------------------|
|
| E S S +S  S S S E   S S S S E
|---0-3-(3)-0-3---3-------1---0---|
|-----------------5-----3-----1---|
|---------------------------------|
|---------------------------------|
|---------------------------------|
|---------------------------------|


  E    E  E  S S S S S S E S S   E E E S S S S S S  E     E
|------------------------------|-------------------------------|
|--------------1---1-----1-----|---------1---1------1----------|
|------0--0--0-0-0-0-0---0-0---|---2-2-2-2-2-2-2----2-----2----|
|------2--2--2-2-2-2-2---2-2---|---3-3-3-3-3-3-3----3-----3----|
|------3--3--3---3---3-----3---|---3-3-3---3---3----------3----|
|------------------------------|-------------------------------|
|
|                                Gtr II
| S E.   +H              Q       E E E E   E   S S +S   E    S
|---0----(0)-------------------|---8---8---8-----8-(8)---------|
|---1----(1)-------------------|-----------------------10---11-|
|------------------------------|-------------------------------|
|------------------------------|-------------------------------|
|------------------------------|-------------------------------|
|------------------------------|-------------------------------|


   E     E   E  S S   S  S S S E E
|-----------------------------------|
|-----------------1------1-----1----|
|--------2---2--2-2---2--2-2---2-2--|
|--------3---3--3-3---3--3-3---3-3--|
|--------3---3--3-----3----3-----3--|
|-----------------------------------|
|
|  S  E.    +Q       +H
|-----------------------------------|
|-12-13----(13)-----(13)------------|
|-----------------------------------|
|-----------------------------------|
|-----------------------------------|
|-----------------------------------|


  E E    E    S S S S S S  E    S S
|-----------------------------------|
|---------------1---1------1--------|
|---0----0----0-0-0-0-0----0----0---|
|---2----2----2-2-2-2-2----2----2---|
|---3----3----3---3---3---------3---|
|-----------------------------------|
|
| Gtr IV
| E S S +S  S S S E   S S +S  S S S
|---0-3-(3)-0-3---3-----1-(1)---0---|
|-----------------5-----3-(3)-1-----|
|-----------------------------------|
|-----------------------------------|
|-----------------------------------|
|-----------------------------------|


  E    E  E  S S  S  S S S E S S   E E E S S S S S S E E
|--------------------------------|-----------------------|
|--------------1-----1-----1-----|---------1---1-----1---|
|------0--0--0-0--0--0-0---0-0---|---2-2-2-2-2-2-2---2-2-|
|------2--2--2-2--2--2-2---2-2---|---3-3-3-3-3-3-3---3-3-|
|------3--3--3----3----3-----3---|---3-3-3---3---3-----3-|
|--------------------------------|-----------------------|
|
| S E.   +Q      +E    E   Q       W
|-0-3----(3)-----(3)-------------|-----------------------|
|--------------------------------|-----------------------|
|--------------------------------|-----------------------|
|--------------------------------|-----------------------|
|--------------------------------|-----------------------|
|--------------------------------|-----------------------|


  E E E S S S S S S E E   E E E S S S S S S E E   E E E S S S S S S E E
|-----------------------|-----------------------|-----------------------|
|---0-0-0-3---3-----3---|---------3---3-----3---|---------1---1-----1---|
|---0-0-0-4-4-4-4---4-4-|---2-2-2-2-2-2-2---2-2-|---2-2-2-2-2-2-2---2-2-|
|---0-0-0-5-5-5-5---5-5-|---3-3-3-3-3-3-3---3-3-|---3-3-3-3-3-3-3---3-3-|
|-----------5---5-----5-|---5-5-5---5---5-----5-|---3-3-3---3---3-----3-|
|-----------------------|-----------------------|-----------------------|
|
| Gtr III
| W                       W                       W
|-----------------------|-1---------------------|-1---------------------|
|-----------------------|-3---------------------|-1---------------------|
|-----------------------|-2---------------------|-2---------------------|
|-----------------------|-----------------------|-----------------------|
|-----------------------|-----------------------|-----------------------|
|-----------------------|-----------------------|-----------------------|


  E E E S S S S S S E S S    E  E E S S S S S S E S S   E E E S S S S S S E E
|-------------------------|---------------------------|-----------------------|
|---------1---1-----1-----|-----------1---1-----1-----|---------3---3-----3---|
|---0-0-0-0-0-0-0---0-0---|-----0-0-0-0-0-0-0---0-0---|---2-2-2-2-2-2-2---2-2-|
|---2-2-2-2-2-2-2---2-2---|-----2-2-2-2-2-2-2---2-2---|---3-3-3-3-3-3-3---3-3-|
|---3-3-3---3---3-----3---|-----3-3-3---3---3-----3---|---5-5-5---5---5-----5-|
|-------------------------|---------------------------|-----------------------|
|
| W                         +W                          W
|-0-----------------------|-(0)-----------------------|-1---------------------|
|-1-----------------------|-(1)-----------------------|-3---------------------|
|-0-----------------------|-(0)-----------------------|-2---------------------|
|-------------------------|---------------------------|-----------------------|
|-------------------------|---------------------------|-----------------------|
|-------------------------|---------------------------|-----------------------|


  E E E S S S S S S E E   E E E S S S S S S E E    E  E E S S S S S S E E
|-----------------------|-----------------------|-------------------------|
|---------1---1-----1---|---0-0-0-3---3-----3---|-----------3---3-----3---|
|---2-2-2-2-2-2-2---2-2-|---0-0-0-4-4-4-4---4-4-|-----4-4-4-4-4-4-4---4-4-|
|---3-3-3-3-3-3-3---3-3-|---0-0-0-5-5-5-5---5-5-|-----5-5-5-5-5-5-5---5-5-|
|---3-3-3---3---3-----3-|-----------5---5-----5-|-----5-5-5---5---5-----5-|
|-----------------------|-----------------------|-------------------------|
|
| W                       W                       +W
|-1---------------------|-3---------------------|-(3)---------------------|
|-1---------------------|-3---------------------|-(3)---------------------|
|-2---------------------|-4---------------------|-(4)---------------------|
|-----------------------|-----------------------|-------------------------|
|-----------------------|-----------------------|-------------------------|
|-----------------------|-----------------------|-------------------------|


  E E   E   S S S S S S E   E
|-------------------------------|
|-------------1---1-----1-------|
|---2---2---2-2-2-2-2---2---2---|
|---3---3---3-3-3-3-3---3---3---|
|---3---3---3---3---3-------3---|
|-------------------------------|
|
| Gtr II
| E S S S S S S E   S S S S S S
|---5---5---5-------5---5---5---|
|---6---6---6-------6---6---6---|
|---5---5---5-------5---5---5---|
|-------------------------------|
|-------------------------------|
|-------------------------------|


  E E   E   S S S S S S E   E     E E E S S S S S S E S S
|-------------------------------|-------------------------|
|-------------1---1-----1-------|---------1---1-----1-----|
|---2---2---2-2-2-2-2---2---2---|---0-0-0-0-0-0-0---0-0---|
|---3---3---3-3-3-3-3---3---3---|---2-2-2-2-2-2-2---2-2---|
|---3---3---3---3---3-------3---|---3-3-3---3---3-----3---|
|-------------------------------|-------------------------|
|
| E S S S S S S E   S S S S S S   W
|---5---5---5-------5---5---5---|-------------------------|
|---6---6---6-------6---6---6---|-------------------------|
|---5---5---5-------5---5---5---|-------------------------|
|-------------------------------|-------------------------|
|-------------------------------|-------------------------|
|-------------------------------|-------------------------|


  E E E S S S S S S E S S   E E   E   S S S S S S E   E
|-------------------------|-------------------------------|
|---------1---1-----1-----|-------------1---1-----1-------|
|---0-0-0-0-0-0-0---0-0---|---2---2---2-2-2-2-2---2---2---|
|---2-2-2-2-2-2-2---2-2---|---3---3---3-3-3-3-3---3---3---|
|---3-3-3---3---3-----3---|---3---3---3---3---3-------3---|
|-------------------------|-------------------------------|
|
| W                         E S S S S S S E   S S S S S S
|-------------------------|---5---5---5-------5---5---5---|
|-------------------------|---6---6---6-------6---6---6---|
|-------------------------|---5---5---5-------5---5---5---|
|-------------------------|-------------------------------|
|-------------------------|-------------------------------|
|-------------------------|-------------------------------|


  E E   E   S S S S S S E   E
|-------------------------------|
|-------------1---1-----1-------|
|---2---2---2-2-2-2-2---2---2---|
|---3---3---3-3-3-3-3---3---3---|
|---3---3---3---3---3-------3---|
|-------------------------------|
|
| E S S S S S S E   S S S S S S
|---5---5---5-------5---5---5---|
|---6---6---6-------6---6---6---|
|---5---5---5-------5---5---5---|
|-------------------------------|
|-------------------------------|
|-------------------------------|


  E E E S S S S S S E S S   E E E S S S S S S E S S   E E E S S S S S S E E
|-------------------------|-------------------------|-----------------------|
|---------1---1-----1-----|---------1---1-----1-----|---------1---1-----1---|
|---0-0-0-0-0-0-0---0-0---|---0-0-0-0-0-0-0---0-0---|---2-2-2-2-2-2-2---2-2-|
|---2-2-2-2-2-2-2---2-2---|---2-2-2-2-2-2-2---2-2---|---3-3-3-3-3-3-3---3-3-|
|---3-3-3---3---3-----3---|---3-3-3---3---3-----3---|---3-3-3---3---3-----3-|
|-------------------------|-------------------------|-----------------------|


  E E E S S S S S S E E   E E E   S S S S S S  E    S S
|-----------------------|-------------------------------|
|---------1---1-----1---|-----------1---1------1--------|
|---2-2-2-2-2-2-2---2-2-|---0-0---0-0-0-0-0----0----0---|
|---3-3-3-3-3-3-3---3-3-|---2-2---2-2-2-2-2----2----2---|
|---3-3-3---3---3-----3-|---3-3---3---3---3---------3---|
|-----------------------|-------------------------------|
|
| Gtr IV
| W                       E E S E   S E   S S +S  S S S
|-----------------------|---3---3-----3-----1-(1)---1---|
|-----------------------|---5---5-----5-----3-(3)---3---|
|-----------------------|-------------------------------|
|-----------------------|-------------------------------|
|-----------------------|-------------------------------|
|-----------------------|-------------------------------|


  E E    E    S S S S S S E S S
|-------------------------------|
|---------------1---1-----1-----|
|---0----0----0-0-0-0-0---0-0---|
|---2----2----2-2-2-2-2---2-2---|
|---3----3----3---3---3-----3---|
|-------------------------------|
|
| E S S +S  S E   E   E   Q
|-1---0-(0)---0---0-------------|
|-3---1-(1)---1---1-------3-----|
|-------------------------4-----|
|-------------------------------|
|-------------------------------|
|-------------------------------|


  E E E S S  S  S S S E E   E E E S S S S S S E E   S E. +Q   +H
|-------------------------|-----------------------|------------------|
|---------1-----1-----1---|---------1---1-----1---|---1--(1)--(1)----|
|---2-2-2-2--2--2-2---2-2-|---2-2-2-2-2-2-2---2-2-|-0----------------|
|---3-3-3-3--3--3-3---3-3-|---3-3-3-3-3-3-3---3-3-|-2----------------|
|---3-3-3----3----3-----3-|---3-3-3---3---3-----3-|------------------|
|-------------------------|-----------------------|-3----------------|
|
| H         +S  S E   Q     W                       W
|-------------------------|-----------------------|------------------|
|-1---------(1)-----------|-----------------------|------------------|
|-2---------(2)-----------|-----------------------|------------------|
|-------------------------|-----------------------|------------------|
|-------------------------|-----------------------|------------------|
|-------------------------|-----------------------|------------------|


  +S  S E Q  H      E E E S S S S S S  E    E
|-----------------|-----------------------------|
|-(1)-------------|---1-----1---1------1--------|
|-----------------|---2-2-2-2-2-2-2----2----2---|
|-----------------|---3-3-3-3-3-3-3----3----3---|
|-----------------|-----3-3---3---3---------3---|
|-----------------|-----------------------------|
|
| Gtr II
|  W                H         E   S S +S  S S S
|-----------------|-----------------------------|
|-----------------|-----------6-----6-(6)---8---|
|-----------------|-----------------------------|
|-----------------|-----------------------------|
|-----------------|-----------------------------|
|-----------------|-----------------------------|


  E    E   E  S S   S  S S S E E
|---------------------------------|
|---------------1------1-----1----|
|------2---2--2-2---2--2-2---2-2--|
|------3---3--3-3---3--3-3---3-3--|
|------3---3--3-----3----3-----3--|
|---------------------------------|
|
| S S  E  +Q       +H
|---------------------------------|
|-9---10-(10)-----(10)------------|
|---------------------------------|
|---------------------------------|
|---------------------------------|
|---------------------------------|


    E    E E   S S S S S S  E    S S
|------------------------------------|
|----------------1---1------1--------|
|--------0-0---0-0-0-0-0----0----0---|
|--------2-2---2-2-2-2-2----2----2---|
|--------3-3---3---3---3---------3---|
|------------------------------------|
|
|  +S  S E Q       H
|------------------------------------|
|-(10)-------------------------------|
|------------------------------------|
|------------------------------------|
|------------------------------------|
|------------------------------------|
|
| Gtr IV
|   E    E S S E   E   S S +S  S S S
|--------3---0-3---3-----1-(1)-----0-|
|--------5---------5-----3-(3)---1---|
|------------------------------------|
|------------------------------------|
|------------------------------------|
|------------------------------------|


   E    E  E  S S S S S S E S S   E E E S S S S S S E E
|-------------------------------|-----------------------|
|---------------1---1-----1-----|---------1---1-----1---|
|-------0--0--0-0-0-0-0---0-0---|---2-2-2-2-2-2-2---2-2-|
|-------2--2--2-2-2-2-2---2-2---|---3-3-3-3-3-3-3---3-3-|
|-------3--3--3---3---3-----3---|---3-3-3---3---3-----3-|
|-------------------------------|-----------------------|
|
|  W                              W
|-------------------------------|-----------------------|
|-------------------------------|-----------------------|
|-------------------------------|-----------------------|
|-------------------------------|-----------------------|
|-------------------------------|-----------------------|
|-------------------------------|-----------------------|
|
| +S  S E +Q      H               W
|-(0)-0-3-(3)-------------------|-----------------------|
|-------6-(6)-------------------|-----------------------|
|-------------------------------|-----------------------|
|-------------------------------|-----------------------|
|-------------------------------|-----------------------|
|-------------------------------|-----------------------|


  E E E S S S S S S E E   E E    E    S S S S S S E   S S
|-----------------------|---------------------------------|
|---0-0-0-3---3-----3---|---------------1---1-----1-------|
|---0-0-0-4-4-4-4---4-4-|---0----0----0-0-0-0-0---0---0---|
|---0-0-0-5-5-5-5---5-5-|---2----2----2-2-2-2-2---2---2---|
|-----------5---5-----5-|---3----3----3---3---3-------3---|
|-----------------------|---------------------------------|
|
| Gtr IV
| W                       E S S +S  S S S E   S S S S E
|-----------------------|---0-3-(3)-0-3---3-------1---0---|
|-----------------------|-----------------5-----3-----1---|
|-----------------------|---------------------------------|
|-----------------------|---------------------------------|
|-----------------------|---------------------------------|
|-----------------------|---------------------------------|


  E    E  E  S S S S S S E S S
|------------------------------|
|--------------1---1-----1-----|
|------0--0--0-0-0-0-0---0-0---|
|------2--2--2-2-2-2-2---2-2---|
|------3--3--3---3---3-----3---|
|------------------------------|
|
| S E.   +H              Q
|---0----(0)-------------------|
|---1----(1)-------------------|
|------------------------------|
|------------------------------|
|------------------------------|
|------------------------------|


  E E E S S S S S S  E     E       E     E   E  S S   S  S S S E E
|-------------------------------|----------------------------------|
|---------1---1------1----------|-----------------1------1-----1---|
|---2-2-2-2-2-2-2----2-----2----|--------2---2--2-2---2--2-2---2-2-|
|---3-3-3-3-3-3-3----3-----3----|--------3---3--3-3---3--3-3---3-3-|
|---3-3-3---3---3----------3----|--------3---3--3-----3----3-----3-|
|-------------------------------|----------------------------------|
|
| Gtr II
| E E E E   E   S S +S   E    S    S  E.    +Q       +H
|---8---8---8-----8-(8)---------|----------------------------------|
|-----------------------10---11-|-12-13----(13)-----(13)-----------|
|-------------------------------|----------------------------------|
|-------------------------------|----------------------------------|
|-------------------------------|----------------------------------|
|-------------------------------|----------------------------------|


  E E    E    S S S S S S  E    S S
|-------------------------------------|
|---------------1---1------1----------|
|---0----0----0-0-0-0-0----0----0-----|
|---2----2----2-2-2-2-2----2----2-----|
|---3----3----3---3---3---------3-----|
|-------------------------------------|
|
| Gtr IV
| E S S +S  S S S E   S S +S  S S S
|---0-3-(3)-0-3---3-----1-(1)---0-----|
|-----------------5-----3-(3)-1-------|
|-------------------------------------|
|-------------------------------------|
|-------------------------------------|
|-------------------------------------|


  E    E  E  S S  S  S S S E S S
|--------------------------------|
|--------------1-----1-----1-----|
|------0--0--0-0--0--0-0---0-0---|
|------2--2--2-2--2--2-2---2-2---|
|------3--3--3----3----3-----3---|
|--------------------------------|
|
| S E.   +Q      +E    E   Q
|-0-3----(3)-----(3)-------------|
|--------------------------------|
|--------------------------------|
|--------------------------------|
|--------------------------------|
|--------------------------------|


  E E E S S S S S S E E   E E E S S S S S S E E
|-----------------------|-----------------------|
|---------1---1-----1---|---0-0-0-3---3-----3---|
|---2-2-2-2-2-2-2---2-2-|---0-0-0-4-4-4-4---4-4-|
|---3-3-3-3-3-3-3---3-3-|---0-0-0-5-5-5-5---5-5-|
|---3-3-3---3---3-----3-|-----------5---5-----5-|
|-----------------------|-----------------------|
|
| W                       W
|-----------------------|-----------------------|
|-----------------------|-----------------------|
|-----------------------|-----------------------|
|-----------------------|-----------------------|
|-----------------------|-----------------------|
|-----------------------|-----------------------|


  E E E S S S S S S E E   E E E S S S S S S E E   E E E S S S S S S E S S
|-----------------------|-----------------------|--------------------------|
|---------3---3-----3---|---------1---1-----1---|---------1---1-----1------|
|---2-2-2-2-2-2-2---2-2-|---2-2-2-2-2-2-2---2-2-|---0-0-0-0-0-0-0---0-0----|
|---3-3-3-3-3-3-3---3-3-|---3-3-3-3-3-3-3---3-3-|---2-2-2-2-2-2-2---2-2----|
|---5-5-5---5---5-----5-|---3-3-3---3---3-----3-|---3-3-3---3---3-----3----|
|-----------------------|-----------------------|--------------------------|
|
| Gtr III
| W                       W                       W
|-1---------------------|-1---------------------|-0------------------------|
|-3---------------------|-1---------------------|-1------------------------|
|-2---------------------|-2---------------------|-0------------------------|
|-----------------------|-----------------------|--------------------------|
|-----------------------|-----------------------|--------------------------|
|-----------------------|-----------------------|--------------------------|


   E  E E S S S S S S E S S   E E E S S S S S S E E   E E E S S S S S S E E
|---------------------------|-----------------------|------------------------|
|-----------1---1-----1-----|---------3---3-----3---|---------1---1-----1----|
|-----0-0-0-0-0-0-0---0-0---|---2-2-2-2-2-2-2---2-2-|---2-2-2-2-2-2-2---2-2--|
|-----2-2-2-2-2-2-2---2-2---|---3-3-3-3-3-3-3---3-3-|---3-3-3-3-3-3-3---3-3--|
|-----3-3-3---3---3-----3---|---5-5-5---5---5-----5-|---3-3-3---3---3-----3--|
|---------------------------|-----------------------|------------------------|
|
| +W                          W                       W
|-(0)-----------------------|-1---------------------|-1----------------------|
|-(1)-----------------------|-3---------------------|-1----------------------|
|-(0)-----------------------|-2---------------------|-2----------------------|
|---------------------------|-----------------------|------------------------|
|---------------------------|-----------------------|------------------------|
|---------------------------|-----------------------|------------------------|


  E E E S S S S S S E E    E  E E S S S S S S E E
|-----------------------|-------------------------|
|---0-0-0-3---3-----3---|-----------3---3-----3---|
|---0-0-0-4-4-4-4---4-4-|-----4-4-4-4-4-4-4---4-4-|
|---0-0-0-5-5-5-5---5-5-|-----5-5-5-5-5-5-5---5-5-|
|-----------5---5-----5-|-----5-5-5---5---5-----5-|
|-----------------------|-------------------------|
|
| W                       +W
|-3---------------------|-(3)---------------------|
|-3---------------------|-(3)---------------------|
|-4---------------------|-(4)---------------------|
|-----------------------|-------------------------|
|-----------------------|-------------------------|
|-----------------------|-------------------------|


  E E   E   S S S S S S E   E
|-------------------------------|
|-------------1---1-----1-------|
|---2---2---2-2-2-2-2---2---2---|
|---3---3---3-3-3-3-3---3---3---|
|---3---3---3---3---3-------3---|
|-------------------------------|
|
| Gtr II
| E S S S S S S E   S S S S S S
|---5---5---5-------5---5---5---|
|---6---6---6-------6---6---6---|
|---5---5---5-------5---5---5---|
|-------------------------------|
|-------------------------------|
|-------------------------------|


  E E   E   S S S S S S E   E
|-------------------------------|
|-------------1---1-----1-------|
|---2---2---2-2-2-2-2---2---2---|
|---3---3---3-3-3-3-3---3---3---|
|---3---3---3---3---3-------3---|
|-------------------------------|
|
| E S S S S S S E   S S S S S S
|---5---5---5-------5---5---5---|
|---6---6---6-------6---6---6---|
|---5---5---5-------5---5---5---|
|-------------------------------|
|-------------------------------|
|-------------------------------|


  E E E S S S S S S E S S   E E E S S S S S S E S S
|-------------------------|-------------------------|
|---------1---1-----1-----|---------1---1-----1-----|
|---0-0-0-0-0-0-0---0-0---|---0-0-0-0-0-0-0---0-0---|
|---2-2-2-2-2-2-2---2-2---|---2-2-2-2-2-2-2---2-2---|
|---3-3-3---3---3-----3---|---3-3-3---3---3-----3---|
|-------------------------|-------------------------|
|
| W                         W
|-------------------------|-------------------------|
|-------------------------|-------------------------|
|-------------------------|-------------------------|
|-------------------------|-------------------------|
|-------------------------|-------------------------|
|-------------------------|-------------------------|


  E E   E   S S S S S S E   E
|-------------------------------|
|-------------1---1-----1-------|
|---2---2---2-2-2-2-2---2---2---|
|---3---3---3-3-3-3-3---3---3---|
|---3---3---3---3---3-------3---|
|-------------------------------|
|
| E S S S S S S E   S S S S S S
|---5---5---5-------5---5---5---|
|---6---6---6-------6---6---6---|
|---5---5---5-------5---5---5---|
|-------------------------------|
|-------------------------------|
|-------------------------------|


  E E   E   S S S S S S E   E     E E E S S S S S S E S S
|-------------------------------|-------------------------|
|-------------1---1-----1-------|---------1---1-----1-----|
|---2---2---2-2-2-2-2---2---2---|---0-0-0-0-0-0-0---0-0---|
|---3---3---3-3-3-3-3---3---3---|---2-2-2-2-2-2-2---2-2---|
|---3---3---3---3---3-------3---|---3-3-3---3---3-----3---|
|-------------------------------|-------------------------|
|
| E S S S S S S E   S S S S S S   W
|---5---5---5-------5---5---5---|-------------------------|
|---6---6---6-------6---6---6---|-------------------------|
|---5---5---5-------5---5---5---|-------------------------|
|-------------------------------|-------------------------|
|-------------------------------|-------------------------|
|-------------------------------|-------------------------|


  E E E S S S S S S E S S   E E E S S S S S S E E   E E E S S S S S S E E
|-------------------------|-----------------------|------------------------|
|---------1---1-----1-----|---------1---1-----1---|---------1---1-----1----|
|---0-0-0-0-0-0-0---0-0---|---2-2-2-2-2-2-2---2-2-|---2-2-2-2-2-2-2---2-2--|
|---2-2-2-2-2-2-2---2-2---|---3-3-3-3-3-3-3---3-3-|---3-3-3-3-3-3-3---3-3--|
|---3-3-3---3---3-----3---|---3-3-3---3---3-----3-|---3-3-3---3---3-----3--|
|-------------------------|-----------------------|------------------------|


  E E E   S S S S S S  E    S S
|-------------------------------|
|-----------1---1------1--------|
|---0-0---0-0-0-0-0----0----0---|
|---2-2---2-2-2-2-2----2----2---|
|---3-3---3---3---3---------3---|
|-------------------------------|
|
| Gtr IV
| E E S E   S E   S S +S  S S S
|---3---3-----3-----1-(1)---1---|
|---5---5-----5-----3-(3)---3---|
|-------------------------------|
|-------------------------------|
|-------------------------------|
|-------------------------------|


  E E    E    S S S S S S E S S   E E E S S  S  S S S E E
|-------------------------------|-------------------------|
|---------------1---1-----1-----|---------1-----1-----1---|
|---0----0----0-0-0-0-0---0-0---|---2-2-2-2--2--2-2---2-2-|
|---2----2----2-2-2-2-2---2-2---|---3-3-3-3--3--3-3---3-3-|
|---3----3----3---3---3-----3---|---3-3-3----3----3-----3-|
|-------------------------------|-------------------------|
|
| E S S +S  S E   E   E   Q       H         +S  S E   Q
|-1---0-(0)---0---0-------------|-------------------------|
|-3---1-(1)---1---1-------3-----|-1---------(1)-----------|
|-------------------------4-----|-2---------(2)-----------|
|-------------------------------|-------------------------|
|-------------------------------|-------------------------|
|-------------------------------|-------------------------|


  E E E S S S S S S E E   S E. +Q   +H       +S  S E Q  H      Q  Q  Q  Q
|-----------------------|------------------|-----------------|-------------|
|---------1---1-----1---|---1--(1)--(1)----|-(1)-------------|-------------|
|---2-2-2-2-2-2-2---2-2-|-0----------------|-----------------|-------------|
|---3-3-3-3-3-3-3---3-3-|-2----------------|-----------------|-3-----3-----|
|---3-3-3---3---3-----3-|------------------|-----------------|-3-----3-----|
|-----------------------|-3----------------|-----------------|-------------|


  E E Q  H      Q  Q  Q  Q    E E Q  H      Q  Q  Q  Q
|-------------|-------------|-------------|-------------|
|-------------|-------------|-------------|-------------|
|-------------|-------------|-------------|-------------|
|---3-3-------|-------------|-------------|-3-----3-----|
|---3-3-------|-3-----3-----|---3-3-------|-3-----3-----|
|-------------|-3-----3-----|---3-3-------|-------------|


  E E Q  H      Q  Q  Q  Q    E E Q  Q   Q
|-------------|-------------|------------------|
|-------------|-------------|------------------|
|-------------|-------------|------------------|
|---3-3-------|-------------|------------------|
|---3-3-------|-3-----3-----|---3-3--3---3-----|
|-------------|-3-----3-----|---3-3--3---3-----|
|
| Gtr II
| W             W             H      Q   E.  S
|-------------|-------------|---------------10-|
|-------------|-------------|------------------|
|-------------|-------------|-----------12-----|
|-------------|-------------|------------------|
|-------------|-------------|------------------|
|-------------|-------------|------------------|


   E     E   E  S S   S  S S S E E
|----------------------------------|
|-----------------1------1-----1---|
|--------2---2--2-2---2--2-2---2-2-|
|--------3---3--3-3---3--3-3---3-3-|
|--------3---3--3-----3----3-----3-|
|----------------------------------|
|
|  S  E.    +Q       +H
|-13-15----(15)-----(15)-----------|
|-17-------------------------------|
|----------------------------------|
|----------------------------------|
|----------------------------------|
|----------------------------------|


    E  E E S S  S  S S  S   E   E    E E E S S S S S S E S S
|---------------------------------|--------------------------|
|------------1-----1--------1-----|----------1---1-----1-----|
|------2-2-2-2--2--2-2------2---2-|----0-0-0-0-0-0-0---0-0---|
|------3-3-3-3--3--3-3------3---3-|----2-2-2-2-2-2-2---2-2---|
|------3-3-3----3----3----------3-|----3-3-3---3---3-----3---|
|---------------------------------|--------------------------|
|
|  +H           E.      S  +E   E    W
|-(15)---------15------17-(17)----|-15-----------------------|
|------------------------------17-|--------------------------|
|---------------------------------|--------------------------|
|---------------------------------|--------------------------|
|---------------------------------|--------------------------|
|---------------------------------|--------------------------|


    E  E E S S  S  S S  S   E     S S
|--------------------------------------|
|------------1-----1--------1----------|
|------0-0-0-0--0--0-0------0-----0----|
|------2-2-2-2--2--2-2------2-----2----|
|------3-3-3----3----3------------3----|
|--------------------------------------|
|
|  +H           E.      S  +S  S  E
|-(15)---------13------12-(12)---------|
|--------------------------------13----|
|--------------------------------------|
|--------------------------------------|
|--------------------------------------|
|--------------------------------------|


   E E E S S S S S S E E     E  E E S S  S  S S  S   E   E
|------------------------|---------------------------------|
|----------1---1-----1---|------------1-----1--------1-----|
|----2-2-2-2-2-2-2---2-2-|------2-2-2-2--2--2-2------2---2-|
|----3-3-3-3-3-3-3---3-3-|------3-3-3-3--3--3-3------3---3-|
|----3-3-3---3---3-----3-|------3-3-3----3----3----------3-|
|------------------------|---------------------------------|
|
|  W                        +H           E.      S  +E   E
|------------------------|--------------15------17-(17)-15-|
|-13---------------------|-(13)----------------------------|
|------------------------|---------------------------------|
|------------------------|---------------------------------|
|------------------------|---------------------------------|
|------------------------|---------------------------------|


   E     E   E  S S   S  S S S E S S
|------------------------------------|
|-----------------1------1-----1-----|
|--------0---0--0-0---0--0-0---0-0---|
|--------2---2--2-2---2--2-2---2-2---|
|--------3---3--3-----3----3-----3---|
|------------------------------------|
|
|  S  E.    +Q       +H
|-19-20----(20)-----(20)-------------|
|-22---------------------------------|
|------------------------------------|
|------------------------------------|
|------------------------------------|
|------------------------------------|


    E  E E S S S S S S E S S     E E   E   S S S S S S E   E
|----------------------------||--------------------------------|
|------------1---1-----1-----||o-------------1---1-----1-------|
|------0-0-0-0-0-0-0---0-0---||----2---2---2-2-2-2-2---2---2---|
|------2-2-2-2-2-2-2---2-2---||----3---3---3-3-3-3-3---3---3---|
|------3-3-3---3---3-----3---||o---3---3---3---3---3-------3---|
|----------------------------||--------------------------------|
|
|  +W                            E S S S S S S E   S S S S S S
|-(20)-----------------------||----5---5---5-------5---5---5---|
|----------------------------||o---6---6---6-------6---6---6---|
|----------------------------||----5---5---5-------5---5---5---|
|----------------------------||--------------------------------|
|----------------------------||o-------------------------------|
|----------------------------||--------------------------------|


  E E   E   S S S S S S E   E
|-------------------------------|
|-------------1---1-----1-------|
|---2---2---2-2-2-2-2---2---2---|
|---3---3---3-3-3-3-3---3---3---|
|---3---3---3---3---3-------3---|
|-------------------------------|
|
| E S S S S S S E   S S S S S S
|---5---5---5-------5---5---5---|
|---6---6---6-------6---6---6---|
|---5---5---5-------5---5---5---|
|-------------------------------|
|-------------------------------|
|-------------------------------|


  E E E S S S S S S E S S   E E E S S S S S S E S S  8x
|-------------------------|--------------------------||----------------*|
|---------1---1-----1-----|---------1---1-----1-----o||----------------*|
|---0-0-0-0-0-0-0---0-0---|---0-0-0-0-0-0-0---0-0----||----------------*|
|---2-2-2-2-2-2-2---2-2---|---2-2-2-2-2-2-2---2-2----||----------------*|
|---3-3-3---3---3-----3---|---3-3-3---3---3-----3---o||----------------*|
|-------------------------|--------------------------||----------------*|
|
| W                         W                        8x H    +E. S Q
|-------------------------|--------------------------||----------------*|
|-------------------------|-------------------------o||-1----(1)-------*|
|-------------------------|--------------------------||-0----(0)-------*|
|-------------------------|--------------------------||-2----(2)-------*|
|-------------------------|-------------------------o||-3----(3)-------*|
|-------------------------|--------------------------||-3----(3)-------*|


FIN!!!
- BUENO AQUI ABAJO ESTA EL SIGNIFICADO DE LAS LETRAS Y LOS SIGNOS...
- ESPERO QUE LES HAYA AGRADADO Y SOBRETODO QUE LE HAYAN ENTENDIDO...
- POR SI ALGUNA RAZON NO LE ENTIENDEN PUES HECHENME UN MAIL A: [email protected]
- SI QUIEREN ALGUNA PETICION PUES TAMBIEN HECHENME UN MAIL...
- ESTA CANCION Y OTRAS LAS TENGO EN ARCHIVOS POWERTAB, POR SI ALGUIEN LA QUIERE...
  PUES HECHENME UN MAIL PIDIENDOLAS...
- LOS VERE EN LA PROXIMA CANCION!!!...


NOTA!!!: PUEDEN UTILIZAR ESTA TAB PARA PUBLICARLA DONDE USTEDES
QUIERAN, PERO POR FAVOR LES RUEGO QUE ME DEN LOS CREDITOS COMO
TRANSCRIPTOR DE LA MISMA...GRACIAS!!!

NESTOR SADAO ARECHIGA CERVANTES ([email protected])


LEYENDA DE LAS NOTAS:

W = (REDONDA)     NOTA COMPLETA
H = (BLANCA)      MEDIA NOTA
Q = (NEGRA)       CUARTO DE NOTA
E = (CORCHEA)     OCTAVO DE NOTA
S = (SEMICORCHEA) DIECISEISAVA DE NOTA
T = (FUSA)        TREINTAIDOSAVA DE NOTA
X = (SEMIFUSA)    SESENTAICUATROAVA DE NOTA

a  =  ACCIACCATURA
+  =  LIGADURA
.  =  AUMENTA LA DURACION DE LA NOTA
.. =  AUMENTA LA DOBLE DE LA DURACION DE LA NOTA

LEYENDA DE LOS SIMBOLOS:

 h   - HAMMER-ON
 p   - PULL-OFF
 b   - BEND
 pb  - PRE-BEND
 r   - BEND RELASE(SI NO HAY UN NUMERO DESPUES DEL LA r, ENTONCES EL RELASE ES INMEDIATO)
 /  - SLIDE
 s   - LEGATO SLIDE
 S   - SHIFT SLIDE
<n>  - HARMONICOS NATURALES
[n]  - HARMONICOS ARTIFICIALES
n(n) - HARMONICO ATRAVEZ DE UN TAP
 ~   - VIBRACION
 tr  - TRINO
 T   - TAP
 TP  - TREM. PICKING
 PM  - PALM MUTING

/  - tremolo bar dip; n = amount to dip
 
  - TREMOLO BAR DOWN
 n/  - TREMOLO BAR UP
/n  - TREMOLO BAR INVERTED DIP
 =   - SONTENIENDO UN BEND; TAMBIEN ACTUA COMO UN CONECTOR PARA HAMMERS Y PULLS
 <>  - NIVEL DEL VOLUMEN
 x   - NOTA APAGADA
 o   - REPRESENTA UNA NOTA CORTADA


LEYENDA DEL PENTAGRAMA
 |  - COMPAS
||  - DOBLE COMPAS
||o - ES DONDE VA A COMENZAR CUANDO ALGO SE VA A REPETIR
o|| - ES DONDE VA A TERMINAR CUANDO ALGO SE VA A REPETIR
*|  - FIN DE LA CANCION
 :  - COMPAS LIBRE
 $  - SEGNO (AL VER ESTE SIGNO, TENEMOS QUE RETROCEDER HASTA VER EL SIGNO ANTERIOR $...)
 &  - CODA (SIGNIFICA QUE DEBES PASAR LA SIGUIENTE SIGNO &)

Fuente original: LaCuerda
Colaborador original: sNaKePiTs [Nestor Sadao Arechiga Cervantes]





Calificar esta versión:
Aviso: Este fichero es trabajo propio de su transcriptor y representa su interpretación personal de la canción. El material contenido en esta página es para exclusivo uso privado, por lo que se prohibe su reproducción o retransmisión, así como su uso para fines comerciales.
Más versiones de Ciega Sordomuda, Shakira
Ciega Sordomuda
acordes
Ciega Sordomuda
tablatura
Ciega Sordomuda (ver 2)
tablatura
Ciega Sordomuda
bajo
Ciega Sordomuda (ver 2)
bajo
Ciega Sordomuda
teclado
Descubre más canciones de Shakira