Ciega Sordomuda, Shakira (bajo) (ver 2)

Autor: Anónimo | 23438 visualizaciones



esta cancion se toca con un Fretless Bass para mejor calidad 
es un imprecionante bajo de shakira echenle ganas BAJISTAS
[email protected] si tengo msn!
                                                                               
G||------------------|------------------|------------------|------------------|
D||------------------|------------------|------------------|------------------|
A||------------------|------------------|------------------|------------------|
E||------------------|------------------|------------------|------------------|


                                                               
------------------|------------------|----------------3-6-3---|
------------------|------------------|------------4-6-------4-|
------------------|------------------|------------------------|
------------------|------------------|------------------------|


                                                         
-----6-----6-----6-----6--|-----6-----6-------1-3-6-3---|
--------------------------|-----------------4---------4-|
--4-----4-----4-----4-----|--4-----4-----4--------------|
--------------------------|-----------------------------|


                                                              
-----11-----11-----11-----11--|-----11-----11-----11-----11--|
--4---------------------------|------------------------------|
---------9------9------9------|--9------9------9------9------|
------------------------------|------------------------------|


                                                              
------------------------------|------------------------------|
-----11-----11-----11-----11--|-----11-----11-----11-----11--|
------------------------------|------------------------------|
--9------9------9------9------|--9------9------9------9------|


                                                              
-----11-----11-----11-----11--|-----11-----11-----11-----11--|
------------------------------|------------------------------|
--9------9------9------9------|--9------9------9------9------|
------------------------------|------------------------------|


                                                              
------------------------------|------------------------------|
-----11-----11-----11-----11--|-----11-----11-----11-----11--|
------------------------------|------------------------------|
--9------9------9------9------|--9------9------9------9------|


                                                                  
-----11-----11-----11-----11--|------13------13------13------13--|
------------------------------|----------------------------------|
--9------9------9------9------|--11------11------11------11------|
------------------------------|----------------------------------|


                                                              
------------------------------|------------------------------|
-----11-----11-----11-----11--|-----11-----11-----11-----11--|
------------------------------|------------------------------|
--9------9------9------9------|--9------9------9------9------|


                                                              
-----11-----11-----11-----11--|-----11-----11-----11-----11--|
------------------------------|------------------------------|
--9------9------9------9------|--9------9------9------9------|
------------------------------|------------------------------|


                                                              
------------------------------|------------------------------|
-----11-----11-----11-----11--|-----11-----11-----11-----11--|
------------------------------|------------------------------|
--9------9------9------9------|--9------9------9------9------|


                                                                  
-----11-----11-----11-----11--|------13------13------13------13--|
------------------------------|----------------------------------|
--9------9------9------9------|--11------11------11------11------|
------------------------------|----------------------------------|


                                                                   
----------------------------------|------11-----11-----11-----11--|
------13------13------13------13--|-------------------------------|
----------------------------------|----------9------9------9------|
--11------11------11------11------|--14---------------------------|


                                                              
------------------------------|------------------------------|
-----11-----11-----11-----11--|-----11-----11-----11-----11--|
------------------------------|------------------------------|
--9------9------9------9------|--9------9------9------9------|


                                                           
------8-----8-----8-----8--|-----11-----11-----11-----11--|
---------------------------|------------------------------|
---------6-----6-----6-----|--9------9------9------9------|
--11-----------------------|------------------------------|


                                                                      
------13------13------13------13--|------13------13------13------13--|
----------------------------------|----------------------------------|
--11------11------11------11------|--11------11------11------11------|
----------------------------------|----------------------------------|


                                                               
------11-----11-----11-----11--|-----11-----11-----11-----11--|
-------------------------------|------------------------------|
----------9------9------9------|--9------9------9------9------|
--14---------------------------|------------------------------|


                                                              
------------------------------|------------------------------|
-----11-----11-----11-----11--|-----11-----11-----11-----11--|
------------------------------|------------------------------|
--9------9------9------9------|--9------9------9------9------|


                                                              
-----11-----11-----11-----11--|-----11-----11-----11-----11--|
------------------------------|------------------------------|
--9------9------9------9------|--9------9------9------9------|
------------------------------|------------------------------|


                                                              
------------------------------|------------------------------|
-----11-----11-----11-----11--|-----11-----11-----11-----11--|
------------------------------|------------------------------|
--9------9------9------9------|--9------9------9------9------|


                                                              
-----11-----11-----11-----11--|-----11-----11-----11-----11--|
------------------------------|------------------------------|
--9------9------9------9------|--9------9------9------9------|
------------------------------|------------------------------|


                                                              
------------------------------|------------------------------|
-----11-----11-----11-----11--|-----11-----11-----11-----11--|
------------------------------|------------------------------|
--9------9------9------9------|--9------9------9------9------|


                                                              
-----11-----11-----11-----11--|-----11-----11-----11-----11--|
------------------------------|------------------------------|
--9------9------9------9------|--9------9------9------9------|
------------------------------|------------------------------|


                                                                      
-------------------|------------------|-----11-----11-----11-----11--|
-------------------|------------------|--4---------------------------|
-------------------|------------------|---------9------9------9------|
--9----------------|------------------|------------------------------|


                                                              
-----11-----11-----11-----11--|------------------------------|
------------------------------|-----11-----11-----11-----11--|
--9------9------9------9------|------------------------------|
------------------------------|--9------9------9------9------|


                                                              
------------------------------|-----11-----11-----11-----11--|
-----11-----11-----11-----11--|------------------------------|
------------------------------|--9------9------9------9------|
--9------9------9------9------|------------------------------|


                                                                  
------13------13------13------13--|------------------------------|
----------------------------------|-----11-----11-----11-----11--|
--11------11------11------11------|------------------------------|
----------------------------------|--9------9------9------9------|


                                                              
------------------------------|-----11-----11-----11-----11--|
-----11-----11-----11-----11--|------------------------------|
------------------------------|--9------9------9------9------|
--9------9------9------9------|------------------------------|


                                                              
-----11-----11-----11-----11--|------------------------------|
------------------------------|-----11-----11-----11-----11--|
--9------9------9------9------|------------------------------|
------------------------------|--9------9------9------9------|


                                                              
------------------------------|-----11-----11-----11-----11--|
-----11-----11-----11-----11--|------------------------------|
------------------------------|--9------9------9------9------|
--9------9------9------9------|------------------------------|


                                                                      
------13------13------13------13--|----------------------------------|
----------------------------------|------13------13------13------13--|
--11------11------11------11------|----------------------------------|
----------------------------------|--11------11------11------11------|


                                                               
------11-----11-----11-----11--|------------------------------|
-------------------------------|-----11-----11-----11-----11--|
----------9------9------9------|------------------------------|
--14---------------------------|--9------9------9------9------|


                                                           
------------------------------|------8-----8-----8-----8--|
-----11-----11-----11-----11--|---------------------------|
------------------------------|---------6-----6-----6-----|
--9------9------9------9------|--11-----------------------|


                                                                  
-----11-----11-----11-----11--|------13------13------13------13--|
------------------------------|----------------------------------|
--9------9------9------9------|--11------11------11------11------|
------------------------------|----------------------------------|


                                                                   
------13------13------13------13--|------11-----11-----11-----11--|
----------------------------------|-------------------------------|
--11------11------11------11------|----------9------9------9------|
----------------------------------|--14---------------------------|


                                                              
-----11-----11-----11-----11--|------------------------------|
------------------------------|-----11-----11-----11-----11--|
--9------9------9------9------|------------------------------|
------------------------------|--9------9------9------9------|


                                                              
------------------------------|-----11-----11-----11-----11--|
-----11-----11-----11-----11--|------------------------------|
------------------------------|--9------9------9------9------|
--9------9------9------9------|------------------------------|


                                                              
-----11-----11-----11-----11--|------------------------------|
------------------------------|-----11-----11-----11-----11--|
--9------9------9------9------|------------------------------|
------------------------------|--9------9------9------9------|


                                                              
------------------------------|-----11-----11-----11-----11--|
-----11-----11-----11-----11--|------------------------------|
------------------------------|--9------9------9------9------|
--9------9------9------9------|------------------------------|


                                                              
-----11-----11-----11-----11--|------------------------------|
------------------------------|-----11-----11-----11-----11--|
--9------9------9------9------|------------------------------|
------------------------------|--9------9------9------9------|


                                                              
------------------------------|-----11-----11-----11-----11--|
-----11-----11-----11-----11--|------------------------------|
------------------------------|--9------9------9------9------|
--9------9------9------9------|------------------------------|


                                                                      
-----11-----11-----11-----11--|-------------------|------------------|
------------------------------|-------------------|------------------|
--9------9------9------9------|-------------------|------------------|
------------------------------|--9----------------|------------------|


                                                                   
----------------------|--------------------|----------------------|
----------------------|--------------------|----------------------|
----------------------|--------------------|--4--4------4--4------|
--2--2------2--2------|----2--2------------|----------------------|


                                                                 
--------------------|----------------------|--------------------|
--------------------|----------------------|--------------------|
----4--4------------|----------------------|--------------------|
--------------------|--2--2------2--2------|----2--2------------|


                                                                             
----------------------|----------------------|-----11-----11-----11-----11--|
----------------------|----------------------|--4---------------------------|
--4--4------4--4------|--4----4----4----4----|---------9------9------9------|
----------------------|----------------------|------------------------------|


                                                              
-----11-----11-----11-----11--|------------------------------|
------------------------------|-----11-----11-----11-----11--|
--9------9------9------9------|------------------------------|
------------------------------|--9------9------9------9------|


                                                              
------------------------------|-----11-----11-----11-----11--|
-----11-----11-----11-----11--|------------------------------|
------------------------------|--9------9------9------9------|
--9------9------9------9------|------------------------------|


                                                              
-----11-----11-----11-----11--|------------------------------|
------------------------------|-----11-----11-----11-----11--|
--9------9------9------9------|------------------------------|
------------------------------|--9------9------9------9------|


                                                              
------------------------------|-----11-----11-----11-----11--|
-----11-----11-----11-----11--|------------------------------|
------------------------------|--9------9------9------9------|
--9------9------9------9------|------------------------------|


                                                              
-----11-----11-----11-----11--|------------------------------|
------------------------------|-----11-----11-----11-----11--|
--9------9------9------9------|------------------------------|
------------------------------|--9------9------9------9------|


                                                              
------------------------------|-----11-----11-----11-----11--|
-----11-----11-----11-----11--|------------------------------|
------------------------------|--9------9------9------9------|
--9------9------9------9------|------------------------------|


                                                              
-----11-----11-----11-----11--|------------------------------|
------------------------------|-----11-----11-----11-----11--|
--9------9------9------9------|------------------------------|
------------------------------|--9------9------9------9------|


                                                              
------------------------------|-----11-----11-----11-----11--|
-----11-----11-----11-----11--|------------------------------|
------------------------------|--9------9------9------9------|
--9------9------9------9------|------------------------------|


                                                              
-----11-----11-----11-----11--|------------------------------|
------------------------------|-----11-----11-----11-----11--|
--9------9------9------9------|------------------------------|
------------------------------|--9------9------9------9------|


                                                              
------------------------------|-----11-----11-----11-----11--|
-----11-----11-----11-----11--|------------------------------|
------------------------------|--9------9------9------9------|
--9------9------9------9------|------------------------------|


                                                              
-----11-----11-----11-----11--|------------------------------|
------------------------------|-----11-----11-----11-----11--|
--9------9------9------9------|------------------------------|
------------------------------|--9------9------9------9------|


                                                              
------------------------------|-----11-----11-----11-----11--|
-----11-----11-----11-----11--|------------------------------|
------------------------------|--9------9------9------9------|
--9------9------9------9------|------------------------------|


                                                              
-----11-----11-----11-----11--|------------------------------|
------------------------------|-----11-----11-----11-----11--|
--9------9------9------9------|------------------------------|
------------------------------|--9------9------9------9------|


                                                              
------------------------------|-----11-----11-----11-----11--|
-----11-----11-----11-----11--|------------------------------|
------------------------------|--9------9------9------9------|
--9------9------9------9------|------------------------------|


                                                              
-----11-----11-----11-----11--|------------------------------|
------------------------------|-----11-----11-----11-----11--|
--9------9------9------9------|------------------------------|
------------------------------|--9------9------9------9------|


                                
------------------------------||
-----11-----11-----11-----11--||
------------------------------||
--9------9------9------9------||

Fuente original: LaCuerda
Colaborador original: ramon_bassist du gen [[email protected]]





Calificar esta versión:
Aviso: Este fichero es trabajo propio de su transcriptor y representa su interpretación personal de la canción. El material contenido en esta página es para exclusivo uso privado, por lo que se prohibe su reproducción o retransmisión, así como su uso para fines comerciales.
Más versiones de Ciega Sordomuda, Shakira
Ciega Sordomuda
acordes
Ciega Sordomuda
tablatura
Ciega Sordomuda (ver 2)
tablatura
Ciega Sordomuda
bajo
Ciega Sordomuda (ver 2)
bajo
Ciega Sordomuda
teclado
Descubre más canciones de Shakira