Ironias, Savia Andina (tablatura) (ver 2)

Autor: Anónimo | 31827 visualizaciones

Ritmo: 3/4 Vals

Recitado:

Es dificil volver
                         E7
porque cuando quiero tus brazos
         Am
me hacen daño
G
y en tus labios por encontrar el beso
C            (V-3-2-0) E7
encuentro hiel,  Es dificil volver,
Am
porque cuando busco tus ojos son dos puñales
G
y en mi soledad por sentirte más cerca
C
estas más lejos.

Verso 1
E7
Pero tu eres ella
            Am
la que sonreia
              G
se mostraba ardiente
           C  (V-3-2-0)
inspiraba amor
            E7
Oh cuanta ironía
                   Am
se encuentra en la vida
             G
oh cuanta ironía
                  C   E7-Am
se encuntra en la vida.


Punteo

             Am                     Am
e |---0-1----0----------|---------------0--|----0-1-----5----------|
B |-3-----3--1---1------|--0-1-3-0--1------|--3-----3---5--5-------|
G |----------2------2---|-------------2----|------------5-----5----|
D |---------------------|------------------|-----------------------|
A |----------0----------|------------------|------------0----------|
E |---------------------|------------------|-----------------------|


e |--4-5-7-4-5--------|
B |------------5------|
G |--------------5----|
D |-------------------|
A |----------------0--|
E |-------------------|

Verso 2

Pero tu eres ella
la que por despecho
me entrego su cuerpo
no asi su alma
Oh cuanta ironia
se encuentra en la vida
oh cuanta ironia
hace que sonría

porque de lo nuestro
tan equivocado
vino al mundo el fruto
que endulza mi vida
que endulza mi vida
ojala la tuya
pues aunque me pese
he creido en ti.

Final:

                                                Am
e |---0-1----0----------|-----------------------0----|
B |-3-----3--1---1------|----0---0---0----------1----|
G |----------2------2---|-----------------------2----|
D |---------------------|-----------------------2----|
A |----------0----------|--------------0-----0--0----|
E |---------------------|--0---2---4------4----------|

(Dedicado a mi Tio Américo de Cochabamba)
Calificar esta versión:
Aviso: Este fichero es trabajo propio de su transcriptor y representa su interpretación personal de la canción. El material contenido en esta página es para exclusivo uso privado, por lo que se prohibe su reproducción o retransmisión, así como su uso para fines comerciales.
Más versiones de Ironias, Savia Andina
Ironias
tablatura
Ironias (ver 2)
tablatura
Descubre más canciones de Savia Andina