A Los Bosques, Savia Andina (tablatura)

Autor: Anónimo | 21127 visualizaciones



Cualquier corrección o sugerencia al correo
jsrmusica2003hotmail.com saludos.

  REm            FA                   DO
e|---1-0-1-0-1-3-3/5-|---8-7-10-8-7-8-----------|
B|-3-----------------|10--------------8---------|
G|-------------------|--------------------------|
D|-------------------|--------------------------|
A|-------------------|--------------------------|
E|-------------------|--------------------------|

   DO            FA         DO       REm     x2
e|---3-2-3-0-1-3-3/5-|8-8-7-5-------------------|
B|-5-----------------|--------8-7-8-5-----------|
G|-------------------|----------------7---------|
D|-------------------|--------------------------|
A|-------------------|--------------------------|
E|-------------------|--------------------------|

   SIb                 FA x2
e|-10-10-9-10-9-10-8-7----|
B|---------------------10-|
G|------------------------|
D|------------------------|
A|------------------------|
E|------------------------|
  DO             FA        DO       REm     x2
e|-3-3-2-3-0-1-3-3/5-8-8-7-5-------------------|
B|---------------------------8-7-8-5-----------|
G|-----------------------------------7---------|
D|---------------------------------------------|
A|---------------------------------------------|
E|---------------------------------------------|

REm                      FA
A los bosques yo me interno
                        DO
A Echar mis penas llorando
                       FA
Y los bosques me contestan
             DO             REm
Lo que has hecho estas pagando
DO                     FA
Y los bosques me contestan
             DO             REm
Lo que has hecho estas pagando

REm                         FA
Ay como quieres que tan pronto
                           DO
olvide el mal que me has hecho
                           FA
de rato en rato me toco el pecho
          DO             REm
la herida me duele mas y mas
DO                         FA
de rato en rato me toco el pecho
          DO             REm
la herida me duele mas y mas.

SIb                       FA
En la distancia te quiero más
SIb                      FA
En la distancia te adoro más
DO                   FA
Perdonaría cualquier ofensa
         DO          REm
Pero olvidarte jamás jamás
DO                   FA
Perdonaría cualquier ofensa
         DO          REm
Pero olvidarte jamás jamás.
(Repetir introducción)
(Repetir todo)
         DO          REm
Pero olvidarte jamás jamás.





Calificar esta versión:
Aviso: Este fichero es trabajo propio de su transcriptor y representa su interpretación personal de la canción. El material contenido en esta página es para exclusivo uso privado, por lo que se prohibe su reproducción o retransmisión, así como su uso para fines comerciales.
Más versiones de A Los Bosques, Savia Andina
A Los Bosques
acordes
A Los Bosques
tablatura
A Los Bosques (ver 2)
tablatura
Descubre más canciones de Savia Andina