12 Bar Blues, Sangejuan (tablatura)

Autor: Juan2108 | 203 visualizaciones



(E7)                   (A7)                (D7)                (D7) (E7)
E|--------------------|---5-5-5-5-------|---2---------|----2---0----|
B|------5--5--5--5----|---5-5-5-5-------|---1---------|----1---0----|
G|------7--7--7--7----|---6-6-6-6-------|---2---------|----2---1----|
D|------6--6--6--6----|---5-5-5-5-------|---0---------|----0---0----|
A|------7--7--7--7----|---7-7-7-7-------|-------------|--------2----|
E|--------------------|---5-5-5-5-------|-------------|--------0----|

   (E7)                   (A7)                (D7)                (D7) (E7)
E|--------------------|---5-5-5-5-------|---2---------|----2---0----|
B|------5--5--5--5----|---5-5-5-5-------|---1---------|----1---0----|
G|------7--7--7--7----|---6-6-6-6-------|---2---------|----2---1----|
D|------6--6--6--6----|---5-5-5-5-------|---0---------|----0---0----|
A|------7--7--7--7----|---7-7-7-7-------|-------------|--------2----|
E|--------------------|---5-5-5-5-------|-------------|--------0----|

  (E7)                   (A7)                (D7)                (D7) (E7)
E|--------------------|---5-5-5-5-------|---2---------|----2---0----|
B|------5--5--5--5----|---5-5-5-5-------|---1---------|----1---0----|
G|------7--7--7--7----|---6-6-6-6-------|---2---------|----2---1----|
D|------6--6--6--6----|---5-5-5-5-------|---0---------|----0---0----|
A|------7--7--7--7----|---7-7-7-7-------|-------------|--------2----|
E|--------------------|---5-5-5-5-------|-------------|--------0----|

  (E7)                   (A7)                (D7)                (D7) (E7)
E|--------------------|---5-5-5-5-------|---2---------|----2---0----|
B|------5--5--5--5----|---5-5-5-5-------|---1---------|----1---0----|
G|------7--7--7--7----|---6-6-6-6-------|---2---------|----2---1----|
D|------6--6--6--6----|---5-5-5-5-------|---0---------|----0---0----|
A|------7--7--7--7----|---7-7-7-7-------|-------------|--------2----|
E|--------------------|---5-5-5-5-------|-------------|--------0----|

   (E7)                   (A7)                (D7)                (D7) (E7)
E|--------------------|---5-5-5-5-------|---2---------|----2---0----|
B|------5--5--5--5----|---5-5-5-5-------|---1---------|----1---0----|
G|------7--7--7--7----|---6-6-6-6-------|---2---------|----2---1----|
D|------6--6--6--6----|---5-5-5-5-------|---0---------|----0---0----|
A|------7--7--7--7----|---7-7-7-7-------|-------------|--------2----|
E|--------------------|---5-5-5-5-------|-------------|--------0----|

  (E7)                   (A7)                (D7)                (D7) (E7)
E|--------------------|---5-5-5-5-------|---2---------|----2---0----|
B|------5--5--5--5----|---5-5-5-5-------|---1---------|----1---0----|
G|------7--7--7--7----|---6-6-6-6-------|---2---------|----2---1----|
D|------6--6--6--6----|---5-5-5-5-------|---0---------|----0---0----|
A|------7--7--7--7----|---7-7-7-7-------|-------------|--------2----|
E|--------------------|---5-5-5-5-------|-------------|--------0----|

  (E7)                   (A7)                (D7)                (D7) (E7)
E|--------------------|---5-5-5-5-------|---2---------|----2---0----|
B|------5--5--5--5----|---5-5-5-5-------|---1---------|----1---0----|
G|------7--7--7--7----|---6-6-6-6-------|---2---------|----2---1----|
D|------6--6--6--6----|---5-5-5-5-------|---0---------|----0---0----|
A|------7--7--7--7----|---7-7-7-7-------|-------------|--------2----|
E|--------------------|---5-5-5-5-------|-------------|--------0----|

   (E7)                   (A7)                (D7)                (D7) (E7)
E|--------------------|---5-5-5-5-------|---2---------|----2---0----|
B|------5--5--5--5----|---5-5-5-5-------|---1---------|----1---0----|
G|------7--7--7--7----|---6-6-6-6-------|---2---------|----2---1----|
D|------6--6--6--6----|---5-5-5-5-------|---0---------|----0---0----|
A|------7--7--7--7----|---7-7-7-7-------|-------------|--------2----|
E|--------------------|---5-5-5-5-------|-------------|--------0----|

  (E7)                   (A7)                (D7)                (D7) (E7)
E|--------------------|---5-5-5-5-------|---2---------|----2---0----|
B|------5--5--5--5----|---5-5-5-5-------|---1---------|----1---0----|
G|------7--7--7--7----|---6-6-6-6-------|---2---------|----2---1----|
D|------6--6--6--6----|---5-5-5-5-------|---0---------|----0---0----|
A|------7--7--7--7----|---7-7-7-7-------|-------------|--------2----|
E|--------------------|---5-5-5-5-------|-------------|--------0----|
  (E7)                   (A7)                (D7)                (D7) (E7)
E|--------------------|---5-5-5-5-------|---2---------|----2---0----|
B|------5--5--5--5----|---5-5-5-5-------|---1---------|----1---0----|
G|------7--7--7--7----|---6-6-6-6-------|---2---------|----2---1----|
D|------6--6--6--6----|---5-5-5-5-------|---0---------|----0---0----|
A|------7--7--7--7----|---7-7-7-7-------|-------------|--------2----|
E|--------------------|---5-5-5-5-------|-------------|--------0----|

   (E7)                   (A7)                (D7)                (D7) (E7)
E|--------------------|---5-5-5-5-------|---2---------|----2---0----|
B|------5--5--5--5----|---5-5-5-5-------|---1---------|----1---0----|
G|------7--7--7--7----|---6-6-6-6-------|---2---------|----2---1----|
D|------6--6--6--6----|---5-5-5-5-------|---0---------|----0---0----|
A|------7--7--7--7----|---7-7-7-7-------|-------------|--------2----|
E|--------------------|---5-5-5-5-------|-------------|--------0----|

  (E7)                   (A7)                (D7)                (D7) (E7)
E|--------------------|---5-5-5-5-------|---2---------|----2---0----|
B|------5--5--5--5----|---5-5-5-5-------|---1---------|----1---0----|
G|------7--7--7--7----|---6-6-6-6-------|---2---------|----2---1----|
D|------6--6--6--6----|---5-5-5-5-------|---0---------|----0---0----|
A|------7--7--7--7----|---7-7-7-7-------|-------------|--------2----|
E|--------------------|---5-5-5-5-------|-------------|--------0----|





Calificar esta versión:
Aviso: Este fichero es trabajo propio de su transcriptor y representa su interpretación personal de la canción. El material contenido en esta página es para exclusivo uso privado, por lo que se prohibe su reproducción o retransmisión, así como su uso para fines comerciales.
Más versiones de 12 Bar Blues, Sangejuan
12 Bar Blues
tablatura
12 Bar Blues
bajo
Descubre más canciones de Sangejuan