12 Bar Blues, Sangejuan (bajo)

Autor: Juan2108 | 115 visualizaciones



G|--------------------|-----------------|-------------|-------------|
D|--------------------|-----------------|---0---------|----0--------|
A|--------------------|-0---------------|-------------|-------------|
E|----0---------------|-----------------|-------------|--------0----|

G|--------------------|-----------------|-------------|-------------|
D|--------------------|-0---------------|------0------|-------------|
A|--0-----------------|-----------------|-------------|----0--------|
E|--------0-----------|-----------------|----------0--|--------0----|

G|--------------------|-----------------|-------------|-------------|
D|--------------------|-----------------|-------------|-------------|
A|-------0------------|--0--------------|-----0-------|-----0-------|
E|--------------------|--------0--------|-------------|-------------|

G|--------------------|-----------------|-------------|-------------|
D|--------------------|-----------------|---0---------|----0--------|
A|--------------------|-0---------------|-------------|-------------|
E|----0---------------|-----------------|-------------|--------0----|

G|--------------------|-----------------|-------------|-------------|
D|--------------------|-0---------------|------0------|-------------|
A|--0-----------------|-----------------|-------------|----0--------|
E|--------0-----------|-----------------|----------0--|--------0----|

G|--------------------|-----------------|-------------|-------------|
D|--------------------|-----------------|-------------|-------------|
A|-------0------------|--0--------------|-----0-------|-----0-------|
E|--------------------|--------0--------|-------------|-------------|

G|--------------------|-----------------|-------------|-------------|
D|--------------------|-----------------|---0---------|----0--------|
A|--------------------|-0---------------|-------------|-------------|
E|----0---------------|-----------------|-------------|--------0----|

G|--------------------|-----------------|-------------|-------------|
D|--------------------|-0---------------|------0------|-------------|
A|--0-----------------|-----------------|-------------|----0--------|
E|--------0-----------|-----------------|----------0--|--------0----|

G|--------------------|-----------------|-------------|-------------|
D|--------------------|-----------------|-------------|-------------|
A|-------0------------|--0--------------|-----0-------|-----0-------|
E|--------------------|--------0--------|-------------|-------------|

G|--------------------|-----------------|-------------|-------------|
D|--------------------|-----------------|---0---------|----0--------|
A|--------------------|-0---------------|-------------|-------------|
E|----0---------------|-----------------|-------------|--------0----|

G|--------------------|-----------------|-------------|-------------|
D|--------------------|-0---------------|------0------|-------------|
A|--0-----------------|-----------------|-------------|----0--------|
E|--------0-----------|-----------------|----------0--|--------0----|

G|--------------------|-----------------|-------------|-------------|
D|--------------------|-----------------|-------------|-------------|
A|-------0------------|--0--------------|-----0-------|-----0-------|
E|--------------------|--------0--------|-------------|-------------|





Comentarios del colaborador: Fuente original:https://www.cifraclub.com.br/sangejuan/12-bar-blues/tabs-baixo/

Calificar esta versión:
Aviso: Este fichero es trabajo propio de su transcriptor y representa su interpretación personal de la canción. El material contenido en esta página es para exclusivo uso privado, por lo que se prohibe su reproducción o retransmisión, así como su uso para fines comerciales.
Más versiones de 12 Bar Blues, Sangejuan
12 Bar Blues
tablatura
12 Bar Blues
bajo
Descubre más canciones de Sangejuan