El Final, Rostros Ocultos (tablatura)

Autor: Mr Armando Rock | 37560 visualizaciones



Em      A5      D5      B5      C5     G5
E ---0-------X-------X-------X--------X------X---------------------
B ---0-------X-------X-------X--------X------X---------------------
G ---0-------X-------7-------4--------5------X---------------------
D ---2-------7-------7-------4--------5------5---------------------
A ---2-------7-------5-------2--------3------5---------------------
E ---0-------5-------------------------------3---------------------

INTRO:
C5 D5              C5 D5
e|----------------------------------------------------|
B|----------------------------------------------------|
G|-5-77777777777777-5-77777777777777------------------|
D|-5-77777777777777-5-77777777777777------------------|
A|-3-55555555555555-3-55555555555555------------------|
E|----------------------------------------------------|
                                            ¡Au!

    G5                       G5
e|--7-xx-5-xx-3-xx-2-xx-3-5|-7----5----3----2----3-5--|
B|--3-xx-3-xx-3-xx-3-xx-3-3|-3-xx-3-xx-3-xx-3-xx-3-3--|
G|-------------------------|--------------------------|
D|-------------------------|--------------------------|
A|-------------------------|--------------------------|
E|-------------------------|--------------------------|

    G5                       G5
e|--7-xx-5-xx-3-xx-2-xx-3-5|-7----5----3----2----3-5--|
B|--3-xx-3-xx-3-xx-3-xx-3-3|-3-xx-3-xx-3-xx-3-xx-3-3--|
G|-------------------------|--------------------------|
D|-------------------------|--------------------------|
A|-------------------------|--------------------------|
E|-------------------------|--------------------------|

 Esto lo toca una de las guitarras después de cada cierto tiempo
 e|--------------------------|
 B|--------------------------|
 G|--------------------------|
 D|-555-444-222-000-------
 A|-----------------3-2------|
 E|---------------------3----|

G5                B5 C5
TE SALGO a BUSCAR
G5                  Em
Y NO TE PUEDO ENCONTRAR
        C5             D5     G5
YA TUS AMIGAS ME HAN DICHO PORQUE

G5                    B5 C5
  LLEGANDO a LA FIESTA
G5                     Em
TE VEO BESANDOTE CON OTRO

          C5             D5         G5
YO NO LO QUIERO HOY TE TENGO QUE OLVIDAR
C5             B5
  DECIAS QUE ME QUERIAS
     A5                G5
QUE NO ERA FACIL PODERME OLVIDAR
      C5        B5        D5
REGRESAME EL RETRATO SE ACABO UO OO OO


SOLO: G5,Em,C5,D5,G5,Em,C5,D5,G5 TOQUEN ESTOS ACORDES MIENTRAS ES EL SOLO

e|----------------------------------------------------|
B|--7h8-7h8p7-7-7-8vññ-7h8p7-7-7-8vññ-----------------|
G|-----------9-9------------9-9-------------7h9p7-----|
D|---------------------------------------7h9----------|
A|----------------------------------------------------|
E|----------------------------------------------------|

e|--10-8vññ-12-10-8-7h8-8-7h8-8-7h8-5h7-7-5h7-7-5-3vññ|
B|--10-8vññ-12-10-8-7h8-8-7h8-8-7h8-5h7-7-5h7-7-5-3vññ|
G|----------------------------------------------------|
D|----------------------------------------------------|
A|----------------------------------------------------|
E|----------------------------------------------------|

e|----------------------------------------------------|
B|--10br12-10h12p10-7-8vññ--10br12-10h12p10-7-8vññ----|
G|----------------------------------------------------|
D|----------------------------------------------------|
A|----------------------------------------------------|
E|----------------------------------------------------|

e|----------------------------------------------------|
B|--10br12-10h12p10-7---------------------------------|
G|----------------------------------------------------|
D|----------------------------------------------------|
A|----------------------------------------------------|
E|----------------------------------------------------|

    G5                       G5
e|--7-xx-5-xx-3-xx-2-xx-3-5|-7----5----3----2----3-5--|
B|--3-xx-3-xx-3-xx-3-xx-3-3|-3-xx-3-xx-3-xx-3-xx-3-3--|
G|-------------------------|--------------------------|
D|-------------------------|--------------------------|
A|-------------------------|--------------------------|
E|-------------------------|--------------------------|







C5           B5
   LO SIENTO    ES TARDE
A5                G5
   COMPRENDE ESTE ES EL FINAL
   C5          B5          G5
 REGRESAME EL RETRATO SE ACABO

SE REPITE

G5                          G5
ESTE ES EL FINAL DE NUESTRO AMOR





Comentarios del colaborador: ESTÁ PERFECTAMENTE SACADA XD

Calificar esta versión:
Aviso: Este fichero es trabajo propio de su transcriptor y representa su interpretación personal de la canción. El material contenido en esta página es para exclusivo uso privado, por lo que se prohibe su reproducción o retransmisión, así como su uso para fines comerciales.
Más versiones de El Final, Rostros Ocultos
El Final
acordes
El Final (ver 2)
acordes
El Final (ver 3)
acordes
El Final
tablatura
Descubre más canciones de Rostros Ocultos