El Final, Rostros Ocultos (acordes)

Autor: wwe | 41568 visualizaciones

a5b5c5d5emg5


 ACORDES:

     Em      A5      D5      B5      C5     G5
E ---0-------X-------X-------X--------X------X---------------------
B ---0-------X-------X-------X--------X------X---------------------
G ---0-------X-------7-------4--------5------X---------------------
D ---2-------7-------7-------4--------5------5---------------------
A ---2-------7-------5-------2--------3------5---------------------
E ---0-------5-------------------------------3---------------------

INTRO:
          C5             D5    2 VECES               G5
E ----------------------------------------------------------------
B ----------------------------------------------------------------
G --------5--------------7--7--7--7--7----------------------------
D --------5--------------7--7--7--7--7---------------5-5-5-5-5-5--
A --------3--------------5--5--5--5--5---------------5-5-5-5-5-5--
E ---------------------------------------------------3-3-3-3-3-3--


G5                B5 C5
TE SALGO A BUSCAR
G5                  Em
Y NO TE PUEDO ENCONTRAR
        C5             D5     G5
YA TUS AMIGAS ME HAN DICHO PORQUE


G5                    B5 C5
  LLEGANDO A LA FIESTA
G5                     Em
TE VEO BESANDOTE CON OTRO
          C5             D5         G5
YO NO LO QUIERO HOY TE TENGO QUE OLVIDAR

C5             B5
  DECIAS QUE ME QUERIAS
     A5                G5
QUE NO ERA FACIL PODERME OLVIDAR
      C5        B5        D5
REGRESAME EL RETRATO SE ACABO UO OO OO

SOLO:  G5,Em,C5,D5,G5,Em,C5,D5,G5.


C5           B5
   LO SIENTO    ES TARDE
A5                G5
   COMPRENDE ESTE ES EL FINAL
   C5          B5          G5
 REGRESAME EL RETRATO SE ACABO

SE REPITE

G5                          G5
ESTE ES EL FINAL DE NUESTRO AMOR
 





Comentarios del colaborador: la cuerda.com

Calificar esta versión:
Aviso: Este fichero es trabajo propio de su transcriptor y representa su interpretación personal de la canción. El material contenido en esta página es para exclusivo uso privado, por lo que se prohibe su reproducción o retransmisión, así como su uso para fines comerciales.
Más versiones de El Final, Rostros Ocultos
El Final
acordes
El Final (ver 2)
acordes
El Final (ver 3)
acordes
El Final
tablatura
Descubre más canciones de Rostros Ocultos