Ocho Cuarenta, Rodrigo (tablatura)

Autor: Anónimo | 25258 visualizaciones

(empieza cantando sin musica)

ella es multimillonaria  y del mas alto nivel
termino la secundaria con un promedio de 10

intro del acordeon

        A                   B                 
E |-------------|---------------------------------------0--1-----------0---0--1----------
B |----------1--|----3-1-3-1-3-1----1-3-1-3-3-1-------3-----3-1---------3------3--1------
G |--2-0---0-0--|-----------------------------------------------3-2-----------------3-2--
D |--3-2-3-2----|------------------------------------------------------------------------
A |------5------|------------------------------------------------------------------------
E |-------------|------------------------------------------------------------------------


E |--------------------------------------------1-0---------------------------------------
B |--1-------------------3-1---------1-0-------3-1---------3-1-3-1-3-1---1-3-1-3-3-1-----
G |----3-2-3---------0-2-----3-2---------2-0---------------------------------------------
D |-----------3--------------------------------------------------------------------------
A |--------------------------------------------------------------------------------------
E |--------------------------------------------------------------------------------------


E |------0-1-----------0---0-1----------------------------------------------1--0---0---0-
B |----3-----3-1---------3-----3-1--------1---------------3-1------1-0------3----3---3---
G |--------------3-2---------------3-2------3-2-3-----0-2-----3-2------2-0---------------
D |------------------------------------------------3-------------------------------------
A |--------------------------------------------------------------------------------------
E |--------------------------------------------------------------------------------------



E |--8-8-8-8---
B |------------
G |--5-5-5-5---
D |------------
A |------------
E |------------


Ella es multimillonaria y del mas alto nivel,
terminó la secundaria con un promedio de 10.
Sus amigas sorprendidas no lo podian creer,
que una noche distraída del baile se fue con el.

Ese bago atorrante que nunca tuvo un cospel,
le puso el pecho de arranque erizándole la piel.
Con chamullos elegantes le pinto el mundo alrevés,
para que siempre lo banque de primera lo hizo bien.

El amor sobre toda diferencia social,
dentro del calendario cada dia se va.
A pesar de las dudas dime que dirán,
el amor puede más, puede más.

El amor sobre toda diferencia social,
dentro del calendario cada dia se va.
A pesar de las dudas dime que dirán,
el amor puede más, puede más.

solo
(aca tocan el mism tab pero sin 'A' )  se repite como 3 veces



(para la correcta visualizacion de este documento, usar la fuente 'courier')
Calificar esta versión:
Aviso: Este fichero es trabajo propio de su transcriptor y representa su interpretación personal de la canción. El material contenido en esta página es para exclusivo uso privado, por lo que se prohibe su reproducción o retransmisión, así como su uso para fines comerciales.
Más versiones de Ocho Cuarenta, Rodrigo
Ocho Cuarenta
acordes
Ocho Cuarenta (ver 2)
acordes
Ocho Cuarenta
tablatura
Ocho Cuarenta
bajo
Descubre más canciones de Rodrigo