Ocho Cuarenta, Rodrigo (bajo)

Autor: Anónimo | 18857 visualizaciones

PRIMERA PARTE LENTA:
----------------------

G|-------------------------------------------------
D|--3/10-10----7/8/7-----5/7-5/7-3-----------------
A|-------------------------------------------------
E|-------------------------------------------------


TODA LA CANCION:
---------------------

    F        C       Dm    Am
G|-----------------------------------
D|--3---3----------------------------
A|----3---3--3---3-4-5---5-----------
E|-------------3-------5---5-5-0-5-0-

    Bb      F       G       C                F
G|---------------------------------------------
D|----------3---3-4-5---5--------------------3-
A|--1---1-----3-------5---5-3---3---3----3-5---
E|----1---1-------------------3---3---3--------


Y SE REPITE SIEMPRE IGUAL
Calificar esta versión:
Aviso: Este fichero es trabajo propio de su transcriptor y representa su interpretación personal de la canción. El material contenido en esta página es para exclusivo uso privado, por lo que se prohibe su reproducción o retransmisión, así como su uso para fines comerciales.
Más versiones de Ocho Cuarenta, Rodrigo
Ocho Cuarenta
acordes
Ocho Cuarenta (ver 2)
acordes
Ocho Cuarenta
tablatura
Ocho Cuarenta
bajo
Descubre más canciones de Rodrigo