Boys Don´t Cry, Rock Bones (acordes) (ver 2)

Autor: lutz | 37601 visualizaciones

Prelúdio: (A)  (Bm)  (C#m)  (D)
          (D)  (C#m)  (Bm)  (A)

Intro 3x: (A)  (Bm)  (C#m)  (D)  (D)  (C#m)  (Bm)  (A)
E|-----------------------------2-4-5---2-----|
B|-2-2-2-3-5--2-2-2-3-5--5-5-5----------5-3-2|
G|-------------------------------------------|   [2x]
D|-------------------------------------------|
A|-------------------------------------------|
E|-------------------------------------------|

(A)               (Bm)         (C#m)                    (Bm)
I would say I'm sorry if I thought that it would change your mind
(A)               (Bm)         (C#m)                    (Bm)
But I know that this time I have said too much, been to unkind
(C#m)             (Bm)         (C#m)       (B)   (C#m)       (Bm)
I try to laugh about it, cover it all up with lies
(C#m)               (Bm)         (C#m)      (B)    (C#m)       (Bm)
    I try to laugh about it, hiding the tears in my eyes
coro:
E|-----------------------------2-4-5---2-----|
B|-2-2-2-3-5--2-2-2-3-5--5-5-5----------5-3-2|
G|-------------------------------------------|
D|-------------------------------------------|
A|-------------------------------------------|
E|-------------------------------------------|

     (A) (Bm) (C#m) (D) [ (D) (C#m) (Bm) (A) ] [2x]     [base]
Cos' boys don't cry
     Boys don't cry

(A)               (Bm)         (C#m)                    (Bm)
I would break down at your feet and beg forgiveness, plead with you
(A)               (Bm)         C#m                    (Bm)
But I know that it's too late and now there's nothing left that I can do
(C#m)             Bm         C#m       B   C#m       (Bm)
So I try to laugh about it, cover it all up with lies
(C#m)               Bm         C#m      B   C#m     (Bm)
I try to laugh about it, hiding the tears in my eyes

(coro)

A               Bm         C#m                    Bm
I would tell you that I loved you if I thought that you would stay
A               Bm         C#m                    Bm
But I know that it's no use that you've already gone away

E               F#m      E               F#m
 Misjudged your limit,  pushed you too far
E             F#m      Bm                  E
 Took you for granted, I thought that you needed me more
A               Bm         C#m                    Bm
Now I would do most anything to get you back to my side
A               Bm         C#m                    B
But I just keep on laughing, hiding the tears in my eyes
E|-----------------------------2-4-5---2-----|
B|-2-2-2-3-5--2-2-2-3-5--5-5-5----------5-3-2|
G|-------------------------------------------|
D|-------------------------------------------|   (2x)
A|-------------------------------------------|
E|-------------------------------------------|

A Bm C#m D ( D C#m Bm A) (2x)
(base 4x)
( A )

Cos' boys don't cry
     Boys don't cry
     Boys don't cry

Comentarios del colaborador: es tab y acorde

Calificar esta versión:
Aviso: Este fichero es trabajo propio de su transcriptor y representa su interpretación personal de la canción. El material contenido en esta página es para exclusivo uso privado, por lo que se prohibe su reproducción o retransmisión, así como su uso para fines comerciales.
Más versiones de Boys Don´t Cry, Rock Bones
Boys Don´t Cry
acordes
Boys Don´t Cry (ver 2)
acordes
Descubre más canciones de Rock Bones