Sombras Nada Mas, Rocio Durcal (tablatura)

Autor: Anónimo | 34543 visualizaciones



ESTA ES MI PRIMER TABLATURA ESPERO Y LES GUSTE.
UN SALUDO A MI AMOR IMPOSIBLE ELDA DE LA FUENTE 7 AÑOS MAYOR QUE YO.

e---------|-------------|-------|---------|0-0-0-0------1|
B---------|-----------0-|-------|---------|-------3-2-3--|
G---0-----|-0----0------|--0---0|----0----|--------------|
D-2---3-2-|---3-2-3-2---|-2-3-2-|3-2---3-2|--------------|
A---------|-------------|-------|---------|--------------|
E---------|-------------|-------|---------|--------------|



e-0--------0-|--------------|
B--3-1-0-1---|---1-0-0-3-1-0|
G------------|-2------------|
D------------|--------------|
A------------|--------------|
E------------|--------------|

e---------|-------------|-------|---------|0-0-0-0------1|
B---------|-----------0-|-------|---------|-------3-2-3--|
G---0-----|-0----0------|--0---0|----0----|--------------|
D-2---3-2-|---3-2-3-2---|-2-3-2-|3-2---3-2|--------------|
A---------|-------------|-------|---------|--------------|
E---------|-------------|-------|---------|--------------|



e-0--------0-|---------------|
B--3-1-0-1---|---1-0----1-0--|
G------------|-2------------2|
D------------|-------2-2-----|
A------------|---------------|
E------------|---------------|


e-0-0-----0-|-0-----0-----2-0-|-0-0-----0|-0-----0-----0-|
B-----3-2---|---3-2---3-2-----|-----3-2--|---3-2---3-0---|
G-----------|-----------------|----------|---------------|
D-----------|-----------------|----------|---------------|
A-----------|-----------------|----------|---------------|
E-----------|-----------------|----------|---------------|

e-----------|-----------------|-------------0-0-|-----0-0-----1-1|
B-1-1-0---1-|-1-0---1-0---3-3-|-0-1-3-3-1-0-----|-1-3-----3-1----|
G-------2---|-----2-----2-----|-----------------|----------------|
D-----------|-----------------|-----------------|----------------|
A-----------|-----------------|-----------------|----------------|
E-----------|-----------------|-----------------|----------------|

e---0-1-1-0-1-3-4--------|
B-3----------------------|
G------------------------|
D------------------------|
A------------------------|
E------------------------|





e-0-0-----0-|-0-----0-----2-0-|-0-0-----0|-0-----0-------|
B-----3-2---|---3-2---3-2-----|-----3-2--|---3-2---3-0---|
G-----------|-----------------|----------|-------------2-|
D-----------|-----------------|----------|---------------|
A-----------|-----------------|----------|---------------|
E-----------|-----------------|----------|---------------|


e---------|-------------|-------|---------|0-0-0-0------1|
B---------|-----------0-|-------|---------|-------3-2-3--|
G---0-----|-0----0------|--0---0|----0----|--------------|
D-2---3-2-|---3-2-3-2---|-2-3-2-|3-2---3-2|--------------|
A---------|-------------|-------|---------|--------------|
E---------|-------------|-------|---------|--------------|


e-0--------0-|--------------|
B--3-1-0-1---|---1-0-0-3-1-0|
G------------|-2------------|
D------------|--------------|
A------------|--------------|
E------------|--------------|

e---------|-------------|-------|---------|0-0-0-0------1|
B---------|-----------0-|-------|---------|-------3-2-3--|
G---0-----|-0----0------|--0---0|----0----|--------------|
D-2---3-2-|---3-2-3-2---|-2-3-2-|3-2---3-2|--------------|
A---------|-------------|-------|---------|--------------|
E---------|-------------|-------|---------|--------------|



e-0--------0-|---------------|
B--3-1-0-1---|---1-0----1-0--|
G------------|-2------------2|
D------------|-------2-2-----|
A------------|---------------|
E------------|---------------|

e-0-0-----0-|-0-----0-----2-0-|-0-0-----0|-0-----0-----0-|
B-----3-2---|---3-2---3-2-----|-----3-2--|---3-2---3-0---|
G-----------|-----------------|----------|---------------|
D-----------|-----------------|----------|---------------|
A-----------|-----------------|----------|---------------|
E-----------|-----------------|----------|---------------|

e-----------|-----------------|-------------0-0-|-----0-0-----1-1|
B-1-1-0---1-|-1-0---1-0---3-3-|-0-1-3-3-1-0-----|-1-3-----3-1----|
G-------2---|-----2-----2-----|-----------------|----------------|
D-----------|-----------------|-----------------|----------------|
A-----------|-----------------|-----------------|----------------|
E-----------|-----------------|-----------------|----------------|

e---0-1-1-0-1-3-4--------|
B-3----------------------|
G------------------------|
D------------------------|
A------------------------|
E------------------------|


e-0-0-----0-|-0-----0-----2-0-|-0-0-----0|-0-----0-----0-|
B-----3-2---|---3-2---3-2-----|-----3-2--|---3-2---3-0---|
G-----------|-----------------|----------|---------------|
D-----------|-----------------|----------|---------------|
A-----------|-----------------|----------|---------------|
E-----------|-----------------|----------|---------------|


y arriba Torreòn coahuila la perla de la comarca lagunera





Calificar esta versión:
Aviso: Este fichero es trabajo propio de su transcriptor y representa su interpretación personal de la canción. El material contenido en esta página es para exclusivo uso privado, por lo que se prohibe su reproducción o retransmisión, así como su uso para fines comerciales.
Más versiones de Sombras Nada Mas, Rocio Durcal
Sombras Nada Mas
acordes
Sombras Nada Mas
tablatura
Descubre más canciones de Rocio Durcal