Creep, Radiohead (bajo)

Autor: xxblackxpinkxx | 35636 visualizaciones

             'Creep', Radiohead
______________________________________
transcripto por sebastian arashiro
2007, bs as, argentina.
mail msn por cualquier duda: playing.the.angel_@hotmail.com
______________________________________
INTRO:

G|--------------------------------------------------------------
D|--------------------------------------------------------------
A|----------------2--2-2-2--2-22-3--3-3-3--3-33-----------------
E|-3--3-3-3--3-33-------------------------------8--8-8-8--8-8-8--
     G              B               C              C/Cm
[repite eso toda la canción hasta el estribillo]

When you were here before,
Couldn't look you in your eye
You're just like an angel,
Your skin makes me cry

You float like a feather
In a beautiful world
I wish I was special
You're so fucking special

-----------------------------------------------

G|----------------------------------------------------------------------------------------------------------------
D|----------------------------------------------------------------------------------------------------------------
A|10-10-10-10-10-10-10-10-10-10-10-14-14-14-14-14-14-14-14-14-15-15-15-15-15-15-15-15-15-15-15-15-15-15-15-15-15--
E|----------------------------------------------------------------------------------------------------------------
[es lo mismo que lo anterior, pero subido un tono]

But I'm a creep,
I'm a weirdo
What the hell am I doin' here?
I don't belong here
--------------------------------------------------

G|--------------------------------------------------------------
D|--------------------------------------------------------------
A|----------------2--2-2-2--2-22-3--3-3-3--3-33-----------------
E|-3--3-3-3--3-33-------------------------------8--8-8-8--8-8-8--
     G              B               C              C/Cm
[repite eso toda la canción hasta el estribillo]

I don't care if it hurts,
I wanna have control
I want a perfect body
I want a perfect soul

I want you to notice
when I'm not around
You're so fucking special
I wish I was special
------------------------------------------------

G|----------------------------------------------------------------------------------------------------------------
D|----------------------------------------------------------------------------------------------------------------
A|10-10-10-10-10-10-10-10-10-10-10-14-14-14-14-14-14-14-14-14-15-15-15-15-15-15-15-15-15-15-15-15-15-15-15-15-15--
E|----------------------------------------------------------------------------------------------------------------

But I'm a creep
I'm a weirdo
What the hell am I doin' here?
I don't belong here, ohhhh, ohhhh

She's running out again
She's running out
She run run run run...
run...
---------------------------------------------------

G|--------------------------------------------------------------
D|--------------------------------------------------------------
A|----------------2--2-2-2--2-22-3--3-3-3--3-33-----------------
E|-3--3-3-3--3-33-------------------------------8--8-8-8--8-8-8--

Whatever makes you happy
Whatever you want
You're so fucking special
I wish I was special

But I'm a creep,
I'm a weirdo
What the hell am I doin' here?
I don't belong here

I don't belong here...

Comentarios del colaborador: transcripto de oido, me gusta esta cancion, siempre

Calificar esta versión:
Aviso: Este fichero es trabajo propio de su transcriptor y representa su interpretación personal de la canción. El material contenido en esta página es para exclusivo uso privado, por lo que se prohibe su reproducción o retransmisión, así como su uso para fines comerciales.
Más versiones de Creep, Radiohead
Creep
acordes
Creep (ver 2)
acordes
Creep (ver 3)
acordes
Creep (ver 4)
acordes
Creep (ver 5)
acordes
Creep (ver 6)
acordes
Creep
tablatura
Creep (ver 2)
tablatura
Creep
bajo
Creep
video guitarra
Descubre más canciones de Radiohead