Creep, Radiohead (acordes) (ver 5)

Autor: chucho13k | 23761 visualizaciones

am
 Creep / Radiohead / PabloHoney 

INTRO:
      	
e||---1---|-------|--------|--------|--------|
B||---1---|-------|--------|--------|--------|
G||---1---|---2---|--------|--------|--------|
D||---1---|-------|------4-|--------|--------|
A||---1---|-------|----3---|--------|--------|
E||---1---|-------|--------|--------|--------|
     Traste3 
 
e||---1---|-------|--------|--------|--------|
B||---1---|-------|--------|--------|--------|
G||---1---|---2---|--------|--------|--------|
D||---1---|-------|------4-|--------|--------|
A||---1---|-------|----3---|--------|--------|
E||---1---|-------|--------|--------|--------|
     Traste7 

e||---1---|-------|--------|--------|--------|
B||---1---|-------|--------|--------|--------|
G||---1---|---2---|--------|--------|--------|
D||---1---|-------|------4-|--------|--------|
A||---1---|-------|----3---|--------|--------|
E||---1---|-------|--------|--------|--------|
     Traste8

e||---1---|-------|--------|--------|--------|
B||---1---|-------|--------|--------|--------|
G||---1---|-------|--------|--------|--------|
D||---1---|-------|------4-|--------|--------|
A||---1---|-------|----3---|--------|--------|
E||---1---|-------|--------|--------|--------|
     Traste8


 1.-When you were here before…
e||---1---|-------|--------|--------|--------|
B||---1---|-------|--------|--------|--------|
G||---1---|---2---|--------|--------|--------|
D||---1---|-------|------4-|--------|--------|
A||---1---|-------|----3---|--------|--------|
E||---1---|-------|--------|--------|--------|
     Traste3 

2.-Couldn't look you in the eye…                                     
e||---1---|-------|--------|--------|--------|
B||---1---|-------|--------|--------|--------|
G||---1---|---2---|--------|--------|--------|
D||---1---|-------|------4-|--------|--------|
A||---1---|-------|----3---|--------|--------|
E||---1---|-------|--------|--------|--------|
     Traste7 




3.-You're just like an angel…                                  
e||---1---|-------|--------|--------|--------|
B||---1---|-------|--------|--------|--------|
G||---1---|---2---|--------|--------|--------|
D||---1---|-------|------4-|--------|--------|
A||---1---|-------|----3---|--------|--------|
E||---1---|-------|--------|--------|--------|
     Traste8

4.-Your skin makes me cry …                                 
e||---1---|-------|--------|--------|--------|
B||---1---|-------|--------|--------|--------|
G||---1---|-------|--------|--------|--------|
D||---1---|-------|------4-|--------|--------|
A||---1---|-------|----3---|--------|--------|
E||---1---|-------|--------|--------|--------|
     Traste8
You float like a feather 
in a beautiful world 
I wish I was special 
you're so fucking special 
But I'm a creep 
I'm a weirdo 
what the hell Am I doing here 
I don't belong here 
I don't care if it hurts 
I want to have control  
I want a perfect body 
I want a perfect soul  

I want you to notice 
When I'm not around 
you're so fucking special 
I wish I was special 
But I'm a creep 
I'm a weirdo 
what the hell I'm doing here 
I don't belong here 
She's running out again 
she's running out 
she runs runs runs 
Whatever makes you happy 
whatever you want 
you're so fucking special 
I wish I was special 
But I'm a creep, 
I'm a weirdo 
what the hell Am I doing here? 
I don't belong here 
I don't belong here  

 

Comentarios del colaborador: Solo son 4 acordes saquen chido esta cancìon

Calificar esta versión:
Aviso: Este fichero es trabajo propio de su transcriptor y representa su interpretación personal de la canción. El material contenido en esta página es para exclusivo uso privado, por lo que se prohibe su reproducción o retransmisión, así como su uso para fines comerciales.
Más versiones de Creep, Radiohead
Creep
acordes
Creep
acordes
Creep (ver 2)
acordes
Creep (ver 3)
acordes
Creep (ver 4)
acordes
Creep (ver 5)
acordes
Creep (ver 6)
acordes
Creep
tablatura
Creep (ver 2)
tablatura
Creep
bajo
Creep
video guitarra
Descubre más canciones de Radiohead