Tu Abandono, Proyección (tablatura) (ver 2)

Autor: Anónimo | 41465 visualizaciones

ACORDES:> MIm DO RE7 SOL LAm SI7

(Intro):

1)-------3-3--5-5--3----------------------------|
2)-3-5-7--7-7--7-7----3-3-----------------------|
3)---------------------5------------------------|
4)------------------------7-4-5-5----4-5-7-4-5--|
5)-------------------------------5--------------|
6)--------------------------------6-------------|

(Esta parte es rapida)

1)----8---5---6-5-6--8-5--6-5-10---6---5----8---5--6------|
2)-10----7---8-7-8-10-7--8-7-10--8---7---10---7---8-------|
3)--------------------------------------------------------|
4)--------------------------------------------------------|
5)--------------------------------------------------------|
6)--------------------------------------------------------|

 MIm                             DO 
Me dices que te vas pues anda vete
                             RE7  SOL 
ya no vuelvas a cruzarte en mi camino.(bis)

                         DO     LAm SOL 
Te quise con gran pasion yo no lo niego
                       DO       LAm SOL 
tu fuiste mi adoracion mi unico anhelo
                        DO      LAm SOL 
hoy que te alejas de mi sera muy triste
                       LAm     SI7 MIm
mas tarde como olvidar nuestro cariño.


(viento)


MIm                          DO 
Cuando te conoci me prometiste
                              RE7 SOL 
juraste quererme siempre eternamente. (bis)

                      DO    LAm SOL 
No comprendo la razon de tu abandono
                       DO     LAm SOL 
puesto que nunca te di ningun motivo
                       DO    LAm SOL 
sera tal vez por causa de mi pobreza
                     LAm    SI7 MIm
si es asi vete nomas busca riqueza.


SOL                     DO   LAm SOL 
No quiero que te cruces en mi camino
                         DO    LAm SOL 
porque nunca fuiste fiel con mi cariño
                      DO       LAm SOL 
ya buscare otra mejor que me comprenda
                       LAm     SI7 MIm
que sepa querer y amar sin condiciones.

 ------------   -----    -------------
|////////////| |/////|  |/////////////|
|// ---------  |/| |/|  |// ----------
|//|           |/////|  |//|
|//|            -----   |//|
|// --------            |//|
|///////////|           |//|
 -------- //|           |//|
         |//|           |//|
         |//|           |//|
 -------- //|           |// ----------
|///////////|           |//////////// |
 -----------             -------------

Esta canción va dedicada a Nadel que dice que no sufre
      por Anyeli pero en el fondo sufre por ella
Como siempre saludos para toda la promo 5c GUESC
Calificar esta versión:
Aviso: Este fichero es trabajo propio de su transcriptor y representa su interpretación personal de la canción. El material contenido en esta página es para exclusivo uso privado, por lo que se prohibe su reproducción o retransmisión, así como su uso para fines comerciales.
Más versiones de Tu Abandono, Proyección
Tu Abandono
acordes
Tu Abandono (ver 2)
acordes
Tu Abandono
tablatura
Tu Abandono (ver 2)
tablatura
Descubre más canciones de Proyección