Tu Abandono, Proyección (tablatura)

Autor: Anónimo | 44673 visualizaciones

intro:

e--------0---0---2---2---0----
b--0-2-4---4---4---4---4------
g-----------------------------
d-----------------------------
a-----------------------------
E-----------------------------


e--------------------------------
b--0---0-------------------------
g----2---2-----------------------
d----------1-2-2-------1-4-1-2---
a----------------2---3-----------
E------------------3-------------


e--5---------5-------------
b--7-7-8---7-7-7-8---7-----
g----8-9-8-----8-9-8-------
d--------------------------
a--------------------------
E--------------------------

e--7-----------------------
b--8-10-8-7-8-10-7-8-------
g----11-9-8-9-11-9-9-------
d--------------------------
a--------------------------
E--------------------------


este es el intro, cualquier duda a mi correo (¤_¤)
Calificar esta versión:
Aviso: Este fichero es trabajo propio de su transcriptor y representa su interpretación personal de la canción. El material contenido en esta página es para exclusivo uso privado, por lo que se prohibe su reproducción o retransmisión, así como su uso para fines comerciales.
Más versiones de Tu Abandono, Proyección
Tu Abandono
acordes
Tu Abandono (ver 2)
acordes
Tu Abandono
tablatura
Tu Abandono (ver 2)
tablatura
Descubre más canciones de Proyección