Mari Madalenas, Platero Y Tú (tablatura) (ver 2)

Autor: Anónimo | 26843 visualizaciones

Buenas gente,
este es el pequeño solo que se hace en el minuto 1:37 aproximadamente,
espero que os guste

E---------------------------------------------------------
B--------------5/10-10-8-10/13-13-12-13/17-17-15-5--------
G--------------------------------------------------7b-7b-5
D---------------------------------------------------------
A---------------------------------------------------------
E---------------------------------------------------------

E--------|-----------------|-----
B--------|8-5--5-----------|-----
G--------|----8--8-5-8-5---|X2--
D--------|--------------7-5|-----
A--------|-----------------|-----
E--------|-----------------|-----




E---------------------------------------------| B---8-5--5---------------------13-13-13-15b---| G-------8--8-5-8-5----------------------------|X3 D------------------7-5-7b-5-------------------| A---------------------------------------------| E---------------------------------------------| E|------------------------|------------|------ B|---13-13-13-13----------|---------13-|------ G|---------------12-10-12-|12-10-12----|X6----- D|------------------------|------------|------ A|------------------------|------------|----- E|------------------------|------------|------ E-----------|-------------------------------------------- B-----------|-------------------------------------------- G---10b-8---|-------------------------------------------- D---------10|-------------------------------------------- A-----------|-------------------------------------------- E-----------|-------------------------------------------- para cualquier duda o corrección decirmelo,Gracias Javi Azor Componente de Los Tebar
Calificar esta versión:
Aviso: Este fichero es trabajo propio de su transcriptor y representa su interpretación personal de la canción. El material contenido en esta página es para exclusivo uso privado, por lo que se prohibe su reproducción o retransmisión, así como su uso para fines comerciales.
Más versiones de Mari Madalenas, Platero Y Tú
Mari Madalenas
acordes
Mari Madalenas
tablatura
Mari Madalenas (ver 2)
tablatura
Descubre más canciones de Platero Y Tú