Mari Madalenas, Platero Y Tú (tablatura)

Autor: Anónimo | 20374 visualizaciones

Intro:

e---------------------------------------------------
B------5--5--6--8--6--5--5--6--8--5----------------- 
G------5--5--5--5--5--5--5--5--5--5----------------- 
D---------------------------------------------------
A--------------------------------------------------- 
E--------------------------------------------------- 


Mientras esta la intro una de las veces se mete un C5 

-----
----- 
--5--
--5-- 
--3-- 
-----

C5

Cuando empieza a cantar es asi:(En plan tipo rocan rol
de toa la vida, despues del C5 final de cuando canta 
improvisar algo con la pentatonica de C y fin.) 


-----------------------------------------------------
----------------------------------------------------- 
----------------------------------------------------- 
-5-5-7-5-5-5-7-5-----------------------------------5- 
-3-3-3-3-3-3-3-3--5-5-7-5-5-5-7-5--3-3-5-3-3-3-5-3-3- 
------------------3-3-3-3-3-3-3-3--1-1-1-1-1-1-1-1--- 


cuando dice lo de mari mari madaleeeenas mojada siempre... es asi: 

--------------------------------------------------------- 
--------------------------------------------------------- 
--------------------------------------------------------- 
7-7------3-3-------2-2--5-5-2-0---5-5------7-7----3-3---- 
7-7------3-3--3-3-----------------5-5------7-7----3-3---- Pa abajo 
5-5------1-1----------------------3-3------5-5----1-1---- 

------------------------------------------------------------------ 
------------------------------------------------------------------ 
------------------------------------------------------------------ 
-7-7-9-7-7-7-9-7-7-7-9-7-7-7-9-7---------------------------------- 
-5-5-5-5-5-5-5-5-5-5-5-5-5-5-5-5--5-5-7-5-5-5-7-5-5-5-7-5-5-5-7-5- 
----------------------------------3-3-3-3-3-3-3-3-3-3-3-3-3-3-3-3-
Calificar esta versión:
Aviso: Este fichero es trabajo propio de su transcriptor y representa su interpretación personal de la canción. El material contenido en esta página es para exclusivo uso privado, por lo que se prohibe su reproducción o retransmisión, así como su uso para fines comerciales.
Más versiones de Mari Madalenas, Platero Y Tú
Mari Madalenas
acordes
Mari Madalenas
tablatura
Mari Madalenas (ver 2)
tablatura
Descubre más canciones de Platero Y Tú