Hay Poco Rock & Roll, Platero Y Tú (tablatura) (ver 2)

Autor: Anónimo | 33482 visualizaciones

Vaaaamos a ver, lo ke hay aki es el solo de intro 
ke toka el guitarrista de platero (ke no se komo diantres se llama)
en la cancion de Hay poco Rock & Roll grabada em directo.
La e klabado señores, lo uniko ke puede fallar es las
veces ke se repite la frase central ya ke el tab lo e
hecho de memoria.


e/----------3----------------------------------------------
B/6-5-3-5-6---6-5-6 (se deja sonar)------------------------
G/---------------------------------------------------------
D/---------------------------------------------------------
A/---------------------------------------------------------
E/---------------------------------------------------------





e/6-5-3-------------------------------------------------3--
B/-----5-3-5*-3-5*-3-3--23532-23532---------------2-3-5---5*
G/---------------------5-----5-----5-3-2-----2-3-5---------
D/--------------------------------------5-3-5--------------
A/---------------------------------------------------------
E/---------------------------------------------------------


e/8-8-8-8-8-8-6-5-56865-56865-----------8-8----------------
B/---------------8-----8-----8-6-5-------------------------
G/--------------------------------7-5-7*---7-5-3-5*3-5* (etc)
D/---------------------------------------------------------
A/---------------------------------------------------------
E/---------------------------------------------------------

5-3-5* (esta es la frase ke se repite todo el rato en 
no hay punteao chungo y se hace moderadamente lenta, a
y el * (bending) es opcional)


Enga pues a kien le salga le felizito por ke pa los ke 
no sepan demasiao les costara muuuucho.

A! por si interesa la siguiente tab ke esta preparando
el joven (14 años) es la de vicio ( kon solo, acordes 
punteao)
  
Ueeee!!  Solaniko ke te empezbas a
preokupar!!!!

Por si pasa argo: jalexrm@hotmail.com
Calificar esta versión:
Aviso: Este fichero es trabajo propio de su transcriptor y representa su interpretación personal de la canción. El material contenido en esta página es para exclusivo uso privado, por lo que se prohibe su reproducción o retransmisión, así como su uso para fines comerciales.
Más versiones de Hay Poco Rock & Roll, Platero Y Tú
Hay Poco Rock & Roll
acordes
Hay Poco Rock & Roll
tablatura
Hay Poco Rock & Roll (ver 2)
tablatura
Descubre más canciones de Platero Y Tú