Hay Poco Rock & Roll, Platero Y Tú (tablatura)

Autor: Anónimo | 30991 visualizaciones

 *Corrección del tab Hay poco rock & roll.

  Dedicada a mi colega tennesse q le mola
  mucho esta canción. Ala¡¡¡ al lio.

  1ªGuit. Riff A
e[----------------------------------
B[-6-6-6-5-5-5-3-3-3-3-3-3-3-3-5-5--
G[-5-5-5-5-5-5-5-5-5-5-5-5-5-5-5-5--
D[----------------------------------
A[----------------------------------
E[----------------------------------

  1ªGuit. Riff B
e[----------------------------------
B[-6-6-6-5-5-5-3-3-3-3-3-3-3-3-3-3--
G[-5-5-5-5-5-5-5-5-5-5-5-5-5-5-5-5--
D[----------------------------------
A[----------------------------------
E[----------------------------------

  2ªGuit.
e[-----------]
B[-----------]
G[-3------5--]
D[-3--3---5--]
A[-1--3---3--]
E[----1------]

 La 1ªGuit. va alternando el Riff A con el B
mientras la 2ªGuit. le acompaña con esos acordes
podeis acerlos tantas veces como querais.Hasta q
corte la bateria y dejeis de hacer los Riff.

  2ªGuit. Riff C.
e[-------------------------------------------
B[-------------------------------------------
G[-3-------5-5---5-5-----3-------5-5---------
D[-3--3-3--5-5---5-5-3---3--3-3--5-5---------
A[-1--3-3--3-3---3-3-3---1--3-3--3-3---------
E[----1-1------------1------1-1--------------

El Riff C es la guitarra que sigue y
acompaña al solo.
Siii¡¡¡¡, os pondre un trozo del solo
pero solo un trozo q esto quema coñ....

 Solo:
e[--------------------------------------
B[-12^^-10-8--10P8--10-8----------------
G[-12^^-10-8--10P8--10-8----------------
D[----------------10----10-8------------
A[--------------------------10-9-8------
E[--------------------------------11-8--

e[-------------------------------------------
B[------------6B(7)-----------8^^^^(9)8(9)8--
G[-----------5-----5-8-5----5----------------
D[----------7---------7----7-----------------
A[----5S8-10---------------------------------
E[-5H8---------------------------------------

e[----------15----------------]
B[---13-15B(16)Bd15-13-15-13--]
G[-14-------------------------]
D[----------------------------]
A[----------------------------]
E[----------------------------]

Ya, q al final me lio os lo pongo entero.
haced la pentatonica de F, y meted el ixolidico
de C y listo

Estrofa cantada.
               Vas a cerrar el bar
e[-----------------------------
B[-----------------------------
G[-3-------5-5-----------------
D[-3--3-3--5-5-----------------
A[-1--3-3--3-3-----------------
E[----1-1----------------------

Cuando el temita se anima lo unico
una guitarra pone el siguiente riff.

e[----------/-------------------
B[----------/-------------------
G[-3-3--5---/--3--5-------------
D[-3-3--5---/--3--5-------------
A[----------/-------------------
E[----------/-------------------

Y ahora el estribillo

  1ªGuit.
e[-----------------------------------
B[-----------------------------------
G[--------3-3------------------------
D[-3------3-3----5-6-5-6-5-5-6-5-6---
A[-3------1-1----3-3-3-3-3-3-3-3-3---
E[-1---------------------------------

  2ªGuit.
e[-----------------------------------
B[----6------------------------------
G[----5-----3----*----------------*--
D[----------3----5-6-5-6-5-5-6-5-6---
A[----------1----3-3-3-3-3-3-3-3-3---
E[-----------------------------------

*En algunas partes del estribillo hace
esto otro:

e[----8---8-----8---8--
B[----8---8-----8---8--
G[-8H9-----9-8H9-------
D[-------------------
A[-------------------
E[-------------------

Pues esto es todo,al final ay un
cambio y un solo pero con lo que e
puesto aqui lo sacareis sin ningun
problema, para dudas quejas y demas
Slash_gibson20@hotmail.com
Un saludo.
Calificar esta versión:
Aviso: Este fichero es trabajo propio de su transcriptor y representa su interpretación personal de la canción. El material contenido en esta página es para exclusivo uso privado, por lo que se prohibe su reproducción o retransmisión, así como su uso para fines comerciales.
Más versiones de Hay Poco Rock & Roll, Platero Y Tú
Hay Poco Rock & Roll
acordes
Hay Poco Rock & Roll
tablatura
Hay Poco Rock & Roll (ver 2)
tablatura
Descubre más canciones de Platero Y Tú