Al Cantar, Platero Y Tú (tablatura) (ver 2)

Autor: Anónimo | 16191 visualizaciones

Los espcios en blaco, corresponder a los compases de la tablatura
que anteriormente he presentado aqui, para que lleveis mejor el ritmo

                                                           
E||------|------|------|------|------|------|------|------|
B||------|------|------|------|------|------|------|------|
G||------|------|------|------|------|------|------|------|
D||------|------|------|------|------|------|------|------|
A||------|------|------|------|------|------|------|------|
E||------|------|------|------|------|------|------|------|


                                                                               
------------------------|-------------------------|---------------------------|
------------------------|-------------------------|---------------------------|
------------------------|--------5--------7--5----|--7b-------7r-5--5-7-5-----|
--------------------5---|---6-7-------------------|-----------------------7---|
------------5--6-7------|-------------------------|---------------------------|
------------------------|-------------------------|---------------------------|


                                                              
-------------------|-------------------|---------------------|
-------------------|--------8b---------|---------------------|
--5----------------|-------------------|----------7r---5--7--|
-------------------|-------------------|---------------------|
-------------------|-------------------|---------------------|
-------------------|-------------------|---------------------|


                                                                         
-----------------------|------|------|------|------|------|------|------|
-----------------------|------|------|------|------|------|------|------|
--5-7-5----------------|------|------|------|------|------|------|------|
-----------------------|------|------|------|------|------|------|------|
-----------------------|------|------|------|------|------|------|------|
-----------------------|------|------|------|------|------|------|------|


                                                                           
----8----------------------|--------------------------|-------------------|
---------------------------|------8r------------------|-------------------|
-------7r---7r-----7-------|-------------7r---7-------|--7b---------------|
---------------10----10-7--|--10----------------10-7--|-------------------|
---------------------------|--------------------------|-------------------|
---------------------------|--------------------------|-------------------|


                                                                             
------|------|------|------|------|------|------|------|------|------|------|
------|------|------|------|------|------|------|------|------|------|------|
------|------|------|------|------|------|------|------|------|------|------|
------|------|------|------|------|------|------|------|------|------|------|
------|------|------|------|------|------|------|------|------|------|------|
------|------|------|------|------|------|------|------|------|------|------|


                                                                             
------|------|------|------|------|------|------|------|------|------|------|
------|------|------|------|------|------|------|------|------|------|------|
------|------|------|------|------|------|------|------|------|------|------|
------|------|------|------|------|------|------|------|------|------|------|
------|------|------|------|------|------|------|------|------|------|------|
------|------|------|------|------|------|------|------|------|------|------|


                                                                             
------|------|------|------|------|------|------|------|------|------|------|
------|------|------|------|------|------|------|------|------|------|------|
------|------|------|------|------|------|------|------|------|------|------|
------|------|------|------|------|------|------|------|------|------|------|
------|------|------|------|------|------|------|------|------|------|------|
------|------|------|------|------|------|------|------|------|------|------|


                                                                             
------|------|------|------|------|------|------|------|------|------|------|
------|------|------|------|------|------|------|------|------|------|------|
------|------|------|------|------|------|------|------|------|------|------|
------|------|------|------|------|------|------|------|------|------|------|
------|------|------|------|------|------|------|------|------|------|------|
------|------|------|------|------|------|------|------|------|------|------|


                                                               
------|------|------|------|------|------|------|------|------|
------|------|------|------|------|------|------|------|------|
------|------|------|------|------|------|------|------|------|
------|------|------|------|------|------|------|------|------|
------|------|------|------|------|------|------|------|------|
------|------|------|------|------|------|------|------|------|


                                                                                
-----------------------|---------------------------|--------------------|------|
--------8--------------|----------8----------------|--------------------|------|
-----------7r---7-5----|--5/-7-------7r------------|--------------------|------|
--------------------7--|----------------10--10r-7--|--10----------------|------|
-----------------------|---------------------------|--------------------|------|
-----------------------|---------------------------|--------------------|------|


                                                                             
------|------|------|------|------|------|------|------|------|------|------|
------|------|------|------|------|------|------|------|------|------|------|
------|------|------|------|------|------|------|------|------|------|------|
------|------|------|------|------|------|------|------|------|------|------|
------|------|------|------|------|------|------|------|------|------|------|
------|------|------|------|------|------|------|------|------|------|------|


                                                                             
------|------|------|------|------|------|------|------|------|------|------|
------|------|------|------|------|------|------|------|------|------|------|
------|------|------|------|------|------|------|------|------|------|------|
------|------|------|------|------|------|------|------|------|------|------|
------|------|------|------|------|------|------|------|------|------|------|
------|------|------|------|------|------|------|------|------|------|------|


                                                       
------|------|------|------|----8---------------------|
------|------|------|------|--------------------------|
------|------|------|------|-------7r-------7---------|
------|------|------|------|------------10-----7--10--|
------|------|------|------|--------------------------|
------|------|------|------|--------------------------|


                                                                               
--------------------------|---------------------|------|----------------------|
--------------------------|---------------------|------|-------------8r-------|
-------------7r-7/5-7--5--|----------7/9--------|------|----------------------|
------7--10---------------|---------------------|------|----7----10-----------|
--------------------------|---------------------|------|----------------------|
--------------------------|---------------------|------|----------------------|


                                                                           
--------------------------|-------------------|------|--------------------|
-------------8r-8----8-10-|--8----------------|------|--------------------|
--------------------------|-------------------|------|---------9b---------|
----7----10---------------|-------------------|------|------7-------------|
--------------------------|-------------------|------|--------------------|
--------------------------|-------------------|------|--------------------|


                                                       
-----------------------------|------------------------|
-------------6---------------|------------------------|
--------10/8----8/10--9-10-9-|---------------------7--|
-----------------------------|--10----------7--10-----|
-----------------------------|------------------------|
-----------------------------|------------------------|


                                                         
---------------------------|----------------------------|
---------------------------|------8---------------------|
--7b-5-7-5-----5/-7--------|-----------------------7b---|
------------7----------10--|--10-----10--10--10---------|
---------------------------|----------------------------|
---------------------------|----------------------------|


                                                                          
--------------------------|------|--5----------------|-------------------|
--------------------------|------|-------------------|-------------------|
--7/-5-----------5--------|------|-------------------|--------7b---------|
--------7--5-7-5----------|------|-------------------|-------------------|
--------------------------|------|-------------------|-------------------|
--------------------------|------|-------------------|-------------------|


                                                                       
---------------------|------------------|-----------------------------|
---------------------|------------------|-----------------------------|
----------7r---5--7b-|------------------|--7r----5-----4---5---7--5-7-|
---------------------|------------------|-----------------------------|
---------------------|------------------|-----------------------------|
---------------------|------------------|-----------------------------|


                                                               
-------------------|------|------|------|------|------|------||
-------------------|------|------|------|------|------|------||
--5----------------|------|------|------|------|------|------||
-------------------|------|------|------|------|------|------||
-------------------|------|------|------|------|------|------||
-------------------|------|------|------|------|------|------||
Calificar esta versión:
Aviso: Este fichero es trabajo propio de su transcriptor y representa su interpretación personal de la canción. El material contenido en esta página es para exclusivo uso privado, por lo que se prohibe su reproducción o retransmisión, así como su uso para fines comerciales.
Más versiones de Al Cantar, Platero Y Tú
Al Cantar
acordes
Al Cantar (ver 2)
acordes
Al Cantar
tablatura
Al Cantar (ver 2)
tablatura
Al Cantar (ver 3)
tablatura
Al Cantar
bajo
Descubre más canciones de Platero Y Tú