Al Cantar, Platero Y Tú (bajo)

Autor: Anónimo | 44309 visualizaciones

Instrumental después de Derramar todos mis secretos…
G|-------------------------------------------------------
D|-------------------------------------------------------
A|----3-------0--------3-------------3-------0-3-0-------
E|--------3------3--1----012--3---1------3---------3-----

Y busqué en el fondo del mar…
G|--------------------------------------------------------
D|--------------------------------------------------------
A|---3---2---0-----------3------------3-------0-3-0-------
E|---------------3---1-----012—3—1--------3---------3-----

Encontré en el corazon
G|---------------------------------------------------------
D|-----------------------------------------0-2-------------
A|----3-------0--------3-------------3---3-----------------
E|--------3------3--1----012--3---1------------------------

No es placer
G|-------------------------------------------5-------------
D|----3---5----------------------------0-2-3------0-2------
A|------------0-------3-------------3-----------3----------
E|--------------3-1-----012-3---1--------------------------

Esnifar…
G|-------------------------------------------5-------------
D|----3-4-5-6--------------------------0-2-3---------------
A|------------0-------3-------------3---------------------
E|--------------3-1-----012-3---1--------------1-3-4-------

Sentir que no estamos muertos.
G|----------------------5-------------
D|---------------0-2-3----------------
A|---0-------3------------------------
E|-------3-1--------------1-3-4-------

Sentir que no estamos muertos (movido)
G|-----------------------------------------5-------Repetir hasta final
D|-----------------------------------0-2-3---------
A|---0—00-000-------------3-333-333----------------
E|-------------3-333-333---------------------1-3-4-
Calificar esta versión:
Aviso: Este fichero es trabajo propio de su transcriptor y representa su interpretación personal de la canción. El material contenido en esta página es para exclusivo uso privado, por lo que se prohibe su reproducción o retransmisión, así como su uso para fines comerciales.
Más versiones de Al Cantar, Platero Y Tú
Al Cantar
acordes
Al Cantar (ver 2)
acordes
Al Cantar
tablatura
Al Cantar (ver 2)
tablatura
Al Cantar (ver 3)
tablatura
Al Cantar
bajo
Descubre más canciones de Platero Y Tú