Here Comes Your Man, Pixies (tablatura)

Autor: luci98 | 31963 visualizaciones



intro:

(3 tiempos)
 E---------------------------------------------|
 B---------------------------------------------|
 G---------------------------------------------|
 D--------4--4--5--7------------------0--2-----|
 A--5--5------------------2--0--0--4--------5--|
 E--------------------3------------------------|

solo:

 E----------------------------------------------------------------|
 B----------------------------------------------------------------|
 G--11--9-------------------------9---11--9----------11-11-9----9-|
 D---------12--12--11--11--11h12-------------12--12----------12---|
 A----------------------------------------------------------------|
 E----------------------------------------------------------------|





Calificar esta versión:
Aviso: Este fichero es trabajo propio de su transcriptor y representa su interpretación personal de la canción. El material contenido en esta página es para exclusivo uso privado, por lo que se prohibe su reproducción o retransmisión, así como su uso para fines comerciales.
Más versiones de Here Comes Your Man, Pixies
Here Comes Your Man
acordes
Here Comes Your Man
tablatura
Descubre más canciones de Pixies