Comfortably Numb, Pink Floyd (tablatura) (ver 2)

Autor: angus/young | 20723 visualizaciones

Soy fabricio Guido por cualquier duda mi correo es fabri_manya20@hotmail.com. aca les traigo el solo primero de confortably numb:

e|14v--14b-15-14b-----12-----------------------14b-15-14b------
B|----------------15b-----15-14---------------------------15b--
G|------------------------------14-----------------------------
D|---------------------------------14-12-12v-------------------
A|-------------------------------------------------------------
E|-------------------------------------------------------------

e|-12---------------------------------------------------------
B|-----15-14--------------------------------------------------
G|-----------14----------------11b-11--------11-----11--------
D|--------------14-12-11-9-7b---------14-12-----14-----14-12--
A|------------------------------------------------------------
E|------------------------------------------------------------

e|------------------15-14-12----------------------------
B|---------------------------15-12----------------------
G|---------------------------------12-------------------
D|14-12-----12--14--------------------12/10-10/9-9/7----
A|------14----------------------------------------------
E|------------------------------------------------------
Calificar esta versión:
Aviso: Este fichero es trabajo propio de su transcriptor y representa su interpretación personal de la canción. El material contenido en esta página es para exclusivo uso privado, por lo que se prohibe su reproducción o retransmisión, así como su uso para fines comerciales.
Más versiones de Comfortably Numb, Pink Floyd
Comfortably Numb
acordes
Comfortably Numb (ver 2)
acordes
Comfortably Numb
tablatura
Comfortably Numb (ver 2)
tablatura
Comfortably Numb
bateria
Descubre más canciones de Pink Floyd