Comfortably Numb, Pink Floyd (acordes) (ver 2)

Autor: ayelen_fs | 41440 visualizaciones

aambbmcddoemfsosmg
 Comfortably Numb


Bm
Hello
                 A 
Is there anybody in there ?
                    G      F#m Em     
Just nod if you can hear me
   Bm
Is there anyone at home ?

Come on now
            A 
I hear your feeling down
G            F#m  Em        
I can ease your pain   
   Bm
And get you on your feet again

Relax
                    A 
I'll need some information first
G           F#m  Em
Just the basic facts
       Bm
Can you show me where it hurts?
D                          A 
There is no pain you are receding
D                             A      B
A distant ship smoke on the horizon
C                                  G
You are only coming through in waves
C                                             G
Your lips move but I can't hear what you're saying
     D                       A 
When I was a child I had a fever
   D                              A  B
My hands felt just like two ballons
C                                  G
Now I've got that feeling once again
                                  C
I can't explain, you would not understand
                    G
This is not how I Am
A B C         G            D
I      have become comfortably numb.


SOLO : D  A  D  A  C  G  C  G

solo 1

---14vvvvvv-----12-14>15>14------------------------------------------------
------------------------------15>17vvvvvvvvvv>15--15-14--------------------
---------------------------------------------------------14----------------
-------------------------------------------------------------1412vvvvvv---
---------------------------------------------------------------------------
---------------------------------------------------------------------------

--14>12--14>[15]>14----------------------------------------------------------
-----------------------15>17---------15--14----------------------------------
---------------------------------------------14------------------/12vvvvvv---
-------------------------------------------------1412--11--9--7-------------
-----------------------------------------------------------------------------
-----------------------------------------------------------------------------

------------------------------------------------------------------
------------------------------------------------------------------
---11-------------------119---97vvvvv----9>7------7---9---11>12---
----------14--12--14---------------------------9------------------
------------------------------------------------------------------
------------------------------------------------------------------

---15-14-12---------------------------------------------------
------------15-12---------------------------------------------
------------------12------------------------------------------
---------------------12vvvvvvvv--109vvvvvvv---1097vvvvv----
--------------------------------------------------------------
--------------------------------------------------------------
			       
-----------------------------------------------------------
-----------------------------------------------------------
-11>[12]vvvvvvvv--9>[11]===[11]==>9>7----------------------
---------------------------------------7/97vvvvvvvvvvv---
-----------------------------------------------------------
-----------------------------------------------------------

A B C         G            D
I      have become comfortably numb.
Bm
O.K.
               A 
Just a little pinprick
                    G    F#m  Em
There'll be no more aaaaaaaah!
 Bm
But you may feel a little sick

Can you stand up?
                  A 
I Do believe it's working, good
                 G         F#m  Em
That'll keep you going through the show
     Bm
Come on it's time to go.
D                              A 
There is no pain, you are receding
D                             A      B
A distant ship smoke on the horizon
C                                 G
You are only coming through in waves
     C                                        G
Your lips move but I can't hear what you're saying
     D                         A 
When I was a child, I caught a fleeting glimpse
D                         A  B
Out of the corner of my eye
C                              G
I turned to look but it was gone
                           C
I cannot put my finger on it now
The child is grown
    G
The dream is gone
     A B C      G      D
And  I       have become comfortably numb.

solo 2

---------------------------------------------------------------
---------------------------------------------------------------
--7--9--9>[11]vvvvvv--9>[11]>9>7---7--9--9--7-------7vvvvvvv---
---------------------------------9-------------9--9------------
---------------------------------------------------------------
---------------------------------------------------------------


-------------------------------------------10----------------------------------
--------10------10--12--12>[15]>12>10--12--------------------------------------
---/11------11---------------------------------------7--9--9>[10]>9>7----------
-----------------------------------------------------------------------9vvvvvv-
-------------------------------------------------------------------------------
-------------------------------------------------------------------------------


---------------------------------------------------------------------------
----10>7-------7-----------------------------------------------------------
-----------9-------9---7-------------------------------7-------------------
--------------------------9vvvvvvvvvv--------7---7--9-----9>7---9vvvvvv----
-----------------------------------------/9--------------------------------
---------------------------------------------------------------------------


--9--9>[10]----7-------7---------------------------
-------------------10-----10>[12]vvv----10>7-------
-----------------------------------------------9---
---------------------------------------------------
---------------------------------------------------
---------------------------------------------------

-------7--------------------------------------------------------
--7--7---10>7---------------------------------------------------
--------------9>[11]>9>7---9-7----------------------------------
-------------------------9-----9-7------------------------------
-----------------------------------9-8-7-5---5vvvvvvvvvvvvvv----
-------------------------------------------7--------------------

--------------------------7-------------------------------------------------
------------------------7---10>7--------------------------------------------
--7-7-7vvvvvvv---9>[11]----------9>[11]>9>7---9-7---------------------------
--------------------------------------------9-----9>7-----------------------
------------------------------------------------------97-5-7>5---5--7-7/9--
----------------------------------------------------------------7-----------

----------------------------7----------------------------7------------------
--------------------------7---10--------7--------------7---10>7-------------
-------------7---7-9>[11]--------9>[11]---7--9--9>[11]----------9>[11]>9>7--
--7-7-7--9>7---9------------------------------------------------------------
----------------------------------------------------------------------------
----------------------------------------------------------------------------


-----------------------------------------------------------------------------
---------------------------7--------------7-7-7------------------7-7-7-------
----9-7--------------------7--------------7-7-7------------------7-7-7-------
--9-----9-7----------------7--9vvvvvvv----7-7-7--"9"vvvvvvvvvv---7-7-7--9vvv-
------------9-8-7-5---5>0----------------------------------------------------
--------------------7--------------------------------------------------------


---------------------------------------------7------------------------
--7---------------------------------------------10>7--10>[12]====>10--
--7----9>[11]>9>7-----7--9--9>[11]vvvvvvvv----------------------------
-----7-------------9--------------------------------------------------
----------------------------------------------------------------------
----------------------------------------------------------------------

----------7-------------------------------------------------------
--------7---10>7--------------------------------------------------
-9>[11]----------9>[11]>9>7-9>7---7---------------------------7---
--------------------------------9---9>7-9>7---7------------9--7---
--------------------------------------------9---9-8-7-------------
------------------------------------------------------10-7--------


-----------------------------------------------------------------------
----------7-----7>[8]>7--------------------------7-----------------7---
--------7-7-----7>[8]>7-----------------7>9>7----7-----------------7---
--9-7-9---7-----7>[8]>7-7vvvvvv-7>9------------9---9>7-----7-9>7>9-----
--------------------------------------------------------9--------------
-----------------------------------------------------------------------


------------------------------------7-----17-17-17>[19]vvv--17-19-21-21>[22]vv-
--------7---7---7--7------7---7--7--7------------------------------------------
--9>7---7---7---7--7----7-7---7--7--7------------------------------------------
------9-----7-----------------------7------------------------------------------
-------------------------------------------------------------------------------
-------------------------------------------------------------------------------


--21>[22]vvv-21-21>[22]>21--21>[22]-21>[22]-21>[22]>21--19>21>19-19-19---
--------------------------------------------------------------------------
--------------------------------------------------------------------------
--------------------------------------------------------------------------
--------------------------------------------------------------------------
--------------------------------------------------------------------------


------------------------------------------------------------------------------
--17-17-17--17>[19]>17>15----17-17-17vvvvvv---15--17-17>[18]>17>15vvv---------
--------------------------16-----------------------------------------16-16-16-
------------------------------------------------------------------------------
------------------------------------------------------------------------------
------------------------------------------------------------------------------

----------------------------10---------10----12-12>[13]-10-12-------12--
--------------------10>[12]----10>[12]----10------------------12-12-----
--14-16vvv--------------------------------------------------------------
-----------14-12--------------------------------------------------------
-----------------14-----------------------------------------------------
------------------------------------------------------------------------


-------------------------------------------------------------
-12>[15]>12--12-10---------------------------------------7---
-------------------9>[11]>9>0--9>7---7-9>7---------------7---
-----------------------------------9-------9-7---------------
-----------------------------------------------9-8-7-5-------
-------------------------------------------------------------

-----------------------------------7--7--7--7---7---7---7--7-7--7---7--7--
---7--7--7--7--7-----7---7---7--7--7--7--7--7---7---7---7--7-7--7---7--7--
---7--7--7--7--7-----7---7---7--7-----------------------------------------
-------------------9---9---9----------------------------------------------
--------------------------------------------------------------------------
--------------------------------------------------------------------------


---7-----------------------------------------------
------10-------------------------------------------
----------9>[11]-9--7------------------------------
----------------------9-9-9-7----7-7>9-9>7-9vvvvv--
---------------------------------------------------
--------------------------------------------------- 
Calificar esta versión:
Aviso: Este fichero es trabajo propio de su transcriptor y representa su interpretación personal de la canción. El material contenido en esta página es para exclusivo uso privado, por lo que se prohibe su reproducción o retransmisión, así como su uso para fines comerciales.
Más versiones de Comfortably Numb, Pink Floyd
Comfortably Numb
acordes
Comfortably Numb (ver 2)
acordes
Comfortably Numb
tablatura
Comfortably Numb (ver 2)
tablatura
Comfortably Numb
bateria
Descubre más canciones de Pink Floyd