Brain Damage, Pink Floyd (tablatura) (ver 2)

Autor: juancuervo | 21469 visualizaciones

1 --2-2-2-2--1-1-1-1--2-2-2-2--1-1-1-1--2-2-2-2--4-4-4-4
2 --3-3-3-3--0-0-0-0--3-3-3-3--0-0-0-0--3-3-3-3--5-5-5-5
3 --2-2-2-2--0-0-0-0--2-2-2-2--0-0-0-0--2-2-2-2--4-4-4-4
4 ------------------------------------------------------
5 ------------------------------------------------------
6 ------------------------------------------------------ 


    y despues sigue asi             ESTRIBILLO
1--3-3-3-3--2-2-0-2--2-2-2-2-/-3-3-3-3--0-0-0-0--0-0-0-0
2--2-2-2-2--3-3-3-3--1-1-1-1-/-0-0-0-0--2-2-2-2--1-1-1-1
3--2-2-2-2--2-2-2-2--2-2-2-2-/-0-0-0-0--2-2-2-2--0-0-0-0
4--2-2-2-2-------------------/-0-0-0-0--2-2-2-2--2-2-2-2
5----------------------------/-2-2-2-2--0-0-0-0--3-3-3-3
6----------------------------/-3-3-3-3--x-x-x-x--x-x-x-x
 y termina repitiendo los mismos acordes(sol,la,do) 





hecha por:Juan Pablo Sarda
Calificar esta versión:
Aviso: Este fichero es trabajo propio de su transcriptor y representa su interpretación personal de la canción. El material contenido en esta página es para exclusivo uso privado, por lo que se prohibe su reproducción o retransmisión, así como su uso para fines comerciales.
Más versiones de Brain Damage, Pink Floyd
Brain Damage
acordes
Brain Damage
tablatura
Brain Damage (ver 2)
tablatura
Descubre más canciones de Pink Floyd