Brain Damage, Pink Floyd (tablatura)

Autor: afkt | 15025 visualizaciones

e------3-----2-------2-----   
b------2-----3----3-------- 
g------3-----2------------- 
d------2-------------------
a--------------------------
e--------------------------         


 sigan la rola asta k pase a esto

e---1-----1----------------
b---0---0------------------
g---0----------------------
d--------------------------
a--------------------------
e--------------------------

azi pasa y se repita la primera

y pasa esta

e--3-------3---------------
b--4----4------------------
g--3-----------------------
d--------------------------
a--------------------------
e--------------------------

y iia sigan la rola

Calificar esta versión:
Aviso: Este fichero es trabajo propio de su transcriptor y representa su interpretación personal de la canción. El material contenido en esta página es para exclusivo uso privado, por lo que se prohibe su reproducción o retransmisión, así como su uso para fines comerciales.
Más versiones de Brain Damage, Pink Floyd
Brain Damage
acordes
Brain Damage
tablatura
Brain Damage (ver 2)
tablatura
Descubre más canciones de Pink Floyd