Cien Años, Pedro Infante (tablatura)

Autor: Anónimo | 28398 visualizaciones

Toda la canción va arpegiada como en la introducción,
con excepción del CORO, no esta tan difícil practíquenla.


                     ***  INTRO ARPEGIADO ***
          G*                   Am                   D7
e|---------0-0-------|---------5--5-------|---------5--5-------|
B|---------0-0-------|---------5--5-------|---------7--7-------|
G|-------4-----------|-------6------------|-------5------------|
D|-----5---------5---|-----7----------7---|-----7----------7---|
A|---5---------------|---7----------------|---5----------------|
E|-3---------------3-|-5------------------|-5----------------5-|

          G*                   Am                   D7
e|---------0--0-------|---------5--5------|---------5--5-------|
B|---------0--0-------|---------5--5------|---------7--7-------|
G|-------4------------|-------6-----------|-------5------------|
D|-----5----------5---|-----7----------7--|-----7----------7---|
A|---5----------------|---7---------------|---5----------------|
E|-3----------------3-|-5-----------------|-5----------------5-|


           G**
e|-----------0-------0--|
B|---------0---0-----0--|
G|-------4-------4---4--|
D|-----5-------------5--|
A|---5---------------5--|
E|-3-----------------3--|



                       *** REQUINTO ***
  |-----SOLO-----|G*                 Am                D7   G**
e|------7-7-7-7-7-7-7-6-5----|-8~10-8-------------------------|
B|------------------------8--|--------11-10-8-----------------|
G|-4~7-----------------------|----------------10-8-8~10-8--7--|
D|---------------------------|--------------------------------|

  |-----SOLO-----| G*                 Am                D7   G**
e|------7-7-7-7-7-7-7-6-5----|-8~10-8-------------------------|
B|------------------------8--|--------11-10-8-----------------|
G|---7-----------------------|----------------10-8-8~10-8--7--|
D|---------------------------|--------------------------------|
             Am        D7
Pasaste a mi lado
               G*     RIFF-1
Con gran indiferencia
            Am         D7
Tus ojos ni siquiera
                G*    RIFF-1
Voltearon hacia mí.


                 Am        D7
Te vi sin que me vieras
                    G*     RIFF-1
Te hable sin que me oyeras
              Am        D7
Y toda mi amargura
                   G*      RIFF-1
Se ahogo dentro de mí.


*** CORO en BOLERO ***
   G7             C
Me duele hasta la vida
   G7             C
Saber que me olvidaste
A7             D7
Pensar que ni desprecio
A7      RIFF-2
Merezca yo de ti.


              Am       D7
Y sin embargo sigues
               G*
Unida a mi existencia
               Am       D7
Y si vivo cien años
                    G*    RIFF-1 G**
Cien años pienso en ti.

                      *** REQUINTO ***
   |-----SOLO-----| G*                 Am                D7  G**
e|------7-7-7-7-7-7-7-6-5----|-8-10~8-------------------------|
B|------------------------8--|--------11-10-8-----------------|
G|-4~7-----------------------|----------------10-8-8~10-8--7--|
D|---------------------------|--------------------------------|

  |-----SOLO-----| G*                 Am                D7   G**
e|------7-7-7-7-7-7-7-6-5----|-8~10-8-------------------------|
B|------------------------8--|--------11-10-8-----------------|
G|---7-----------------------|----------------10-8-8~10-8--7--|
D|---------------------------|--------------------------------|

             Am        D7
Pasaste a mi lado
               G*     RIFF-1
Con gran indiferencia
            Am         D7
Tus ojos ni siquiera
                G*    RIFF-1
Voltearon hacia mí.


                 Am        D7
Te vi sin que me vieras
                    G*     RIFF-1
Te hable sin que me oyeras
              Am        D7
Y toda mi amargura
                   G*      RIFF-1
Se ahogo dentro de mí.



*** CORO en BOLERO ***
   G7             C
Me duele hasta la vida
   G7             C
Saber que me olvidaste
A7             D7
Pensar que ni desprecio
A7      RIFF-2
Merezca yo de ti.


              Am       D7
Y sin embargo sigues
               G*
Unida a mi existencia
               Am       D7
Y si vivo cien años
                    G*    RIFF-1 G**
Cien años pienso en ti.


                      *** REQUINTO ***
  |-----SOLO-----| G*                 Am                D7   G**
e|------7-7-7-7-7-7-7-6-5----|-8~10-8-------------------------|
B|------------------------8--|--------11-10-8-----------------|
G|---7-----------------------|----------------10-8-8~10-8--7--|
D|---------------------------|--------------------------------|

                                                  *** FIN ***


    *** RIFF-1 ***                      *** RIFF-2 ***
e|--------0-0-------|               e|--------0--------2-|
B|--------0-0-------|               B|------1---1------1-|
G|------4-----------|               G|----0-------0----2-|
D|-----5-------5----|               D|-----------------0-|
A|---5--------------|               A|-----------------0-|
E|-4-------------4--|               E|-0---------------0-|



                        ***J_M_C***
Calificar esta versión:
Aviso: Este fichero es trabajo propio de su transcriptor y representa su interpretación personal de la canción. El material contenido en esta página es para exclusivo uso privado, por lo que se prohibe su reproducción o retransmisión, así como su uso para fines comerciales.
Más versiones de Cien Años, Pedro Infante
Cien Años
acordes
Cien AÑos (ver 2)
acordes
Cien Años
tablatura
Cien Años (ver 2)
tablatura
Cien Años
teclado
Descubre más canciones de Pedro Infante