Cien AÑos, Pedro Infante (acordes) (ver 2)

Autor: vjazteca | 34080 visualizaciones

a7ambmcdd7emgg7
esta es mi primera cancion espero q les guste...[dedicada para sonia TE AMO]

intro: 
1:-----10-10-10-10-10-10-10-10-10--9--8-7-----
2:-----12-12-12-12-12-12-12-12-12-11-10-8-----
3:--------------------------------------------
4:--12----------------------------------------



1:--10-8--------------------------------------
2:---8---11-10-8------------------------------
3:---8-----------10-8-8h10h8-7----------------
4:-7-8----------------------------------------




              Am   D7
Pasaste a mi lado
               Bm      Em
con gran indiferencia
               Am      D7
tus ojos ni siquiera
                G
voltearon hacia Mi 

                 Am      D7
Te vi sin que me vieras
                     Bm      Em
te hable sin que me oyeras
               Am      
y toda mi amargura
    D7             G
se ahogo dentro de mi.

    G7              C
Me duele hasta la vida
   G7               C
saber que me olvidaste
   A7              D
pensar que ni desprecio
   A7         D7
meresca yo de ti.

               Am     	D7
Y sin embargo sigues
                Bm     Em
unida a mi existencia
               Am    
y si vivo cien años
     D7
cien años
          G
pienso en ti.
Calificar esta versión:
Aviso: Este fichero es trabajo propio de su transcriptor y representa su interpretación personal de la canción. El material contenido en esta página es para exclusivo uso privado, por lo que se prohibe su reproducción o retransmisión, así como su uso para fines comerciales.
Más versiones de Cien AÑos, Pedro Infante
Cien Años
acordes
Cien AÑos (ver 2)
acordes
Cien Años
tablatura
Cien Años (ver 2)
tablatura
Cien Años
teclado
Descubre más canciones de Pedro Infante