Desconfio De La Vida, Pappo (tablatura)

Autor: Anónimo | 35102 visualizaciones



MI SEGUNDA COLABORACION ESPERO QUE LES GUSTE
SI NO ENTIENDEN ALGO ME ESCRIBEN CON GUSTO
LES VOY A RESPONDER.

PARA QUE SUENE MEJOR LOS ACORDES QUE PUEDAN HAGANLOS
CON CEJILLA.

Intro:
1|-----------------------------------5-6-7-----------------------|
2|---------------5-6-5-5-----5-31/3-------5-3-1-3-1-1-3-4-3-1-3-|
3|----------5-7----------7-5------------------------2------------|
4|--7P6H7-7------------------------------------------------------|
5|---------------------------------------------------------------|
6|---------------------------------------------------------------|

1|----------------------------------------------------------------------|
2|------7---7--8---8-9---9--10-10-10--10-10-10--10-10-10--10-10-10------|
3|-7--7-----------------------------------------------------------------|
4|-------------------------------------------------------(no-sé-por-q)-|
5|----------------------------------------------------------------------|
6|----------------------------------------------------------------------|


            LA RE LA  DO#
No se porque,      imagine
                FAm#  RE#°
que estabamos unidos
           SI7
me senti mejor
            LA  SOL# SOL FA#
pero aqui estoy
               SI7   MI7
tan solo en la vida
              LA
que mejor me voy.


DO# FAm# RE#° SI7 MI MI7

Un viejo blues
me hizo recordar
momentos de la vida
mi primer amor
pero aqui estoy
tan solo en la vida
              RIFF  LA# LA
que mejor me voy.

RIFF:                  LA# LA
1|----------------------|--|--|
2|---5-----4-----3------|--|--|
3|-6---6-5---5-4---4-2--|--|--|
4|----------------------|--|--|
5|----------------------|--|--|
6|----------------------|--|--|



Acordes:
AFINACION     E A D G B e
          C#  x 4 3 4 2 0
              4 4 6 6 6 4
          RE#°5 6 7 5 7 5
          Fm# 2 4 4 2 2 2
          MI7 x 7 6 7 5 0

Fuente original: LaCuerda
Colaborador original: Axel [[email protected]]





Calificar esta versión:
Aviso: Este fichero es trabajo propio de su transcriptor y representa su interpretación personal de la canción. El material contenido en esta página es para exclusivo uso privado, por lo que se prohibe su reproducción o retransmisión, así como su uso para fines comerciales.