El Elias, Panda (tablatura)

Autor: Anónimo | 40489 visualizaciones

Si no les guata pues me vale, creo q esta aceptable aunque 
la saque en media hora

intro:
Grt 1
>--------------------------------------------------------
>--------------------------------------------------------
>--(7-7)--------7-7-7-7----------------------------------
>--(5-5)--------5-5-5-5---7-7-7-7-----5-5-5-5------
>--(5-5)--------5-5-5-5---7-7-7-7-----5-5-5-5-----
>-------------------------5-5-5-5-----7-7-7-7------  

los acorde en paréntesis solo se tocan la primera vez                   

Gtr 2
>----------------------------------------------------------------
>--------6—8--7—6--5-5-----------6--8--7--8--9-9-----(x4)--
>--5-5-5-------------------5-5-5-------------------------------
>--------------------------------------------------------------
>---------------------------------------------------------------
>------------------------------------------------------------

siempre q tengas mal 
>---------------------------------------------------------------
>---------------------------------------------------------------
>----------------------------------------------------------
>--3-x-x------5-x-x----7-x-x----9----------------9-x-x---9-x-x-----
>--3-x-x------5-x-x----7-x-x----9------(x3)------9-x-x—--9-x-x---(x3)--
>--1-x-x------3-x-x----5-x-x----7----------------7-x-x---7-x-x----------

paramos en la gas…
>----------------------------------------------------
>----------------------------------------------------
>------------------------------------------------
>---3-3----5-5----9-9-----------------------
>---3-3----5-5----9-9----(x4)---------------
>---1-1—---3-3----7-7-------------------------

tu siempre estas...   (precoro)
>----------------------------------------------------
>----------------------------------------------------
>-------------------------7-7---9-9----------------
>---7-7-7-7----5-5-5-5----7-7---9-9----(x2)-----------
>---7-7-7-7----5-5-5-5----5-5---7-7-----------------
>---5-5-5-5----3-3-3-3---------------------------

y fíjate que yo no quiero nada que tu me des..... (coro)
>--------------------------------------------------------
>--------------------------------------------------------
>--7-7-7-7---------------------------------------------
>--7-7-7-7------7-7-7-7----5-5-5-5—-7-7-7-7-
>--5-5-5-5------7-7-7-7----5-5-5-5—-7-7-7-7-
>---------------5-5-5-5----3-3-3-3—-5-5-5-5-                 

disculpe señorita...
>----------------------------------------------------
>----------------------------------------------------
>-----------------------------------------------
>--3-x-x---5-x-x----7-x-x---9------------9-9—--9-9------
>--3-x-x---5-x-x----7-x-x---9----(x3)----9-9—--9-9----(x3)
>--1-x-x---3-x-x----5-x-x---7------------7-7---7-7----

coro
intro
precoro
coro

que eras tu nunca paras……(ritmo ska)
>----------------------------------------------------
>----------------------------------------------------
>--7-7-7-7----9-9-9-9----------------------
>--7-7-7-7----9-9-9-9------(x3)------
>--5-5-5-5----7-7-7-7--------------
>--------------------------------------------------
sigue con los mismo  pero mas rapido

arriba panda y división.
Calificar esta versión:
Aviso: Este fichero es trabajo propio de su transcriptor y representa su interpretación personal de la canción. El material contenido en esta página es para exclusivo uso privado, por lo que se prohibe su reproducción o retransmisión, así como su uso para fines comerciales.
Más versiones de El Elias, Panda
El Elias
acordes
El Elias
tablatura
El Elias
bajo
Descubre más canciones de Panda