El Elias, Panda (bajo)

Autor: Anónimo | 35819 visualizaciones

El Elías


G--------------------------------------
D--------------------------------------
A--66666666----------------------------  x4
E-----------66666666-44444444-66666666-


“Paramos en la gas...”
G----------------------
D----------------------
A--6666----------------  x4
E-------3333-4444-6666-


“Tú siempre estás...”
G----------------------------------------
D----------------------------------------
A--66666666--------------44-66-----66-88-  x2
E-----------66666666-4-6-------6-8-------


“Y fíjate que yo...”
G--------------------------------------
D--------------------------------------
A--66666666----------------------------  x2
E-----------66666666-44444444-66666666-


“Disculpe señorita...”
G----------------------
D----------------------
A--6666----------------  x4
E-------3333-4444-6666-


“Tú siempre estás...”
G----------------------------------------
D----------------------------------------
A--66666666--------------44-66-----66-88-  x2
E-----------66666666-4-6-------6-8-------


“Y fíjate que yo...”
G--------------------------------------
D--------------------------------------
A--66666666----------------------------  x4
E-----------66666666-44444444-66666666-


“Tú siempre estás...”
G--------------------------------------
D--------------------------------------
A--66666666----------------------------  x2
E-----------66666666-44444444-66666666-


“Y fíjate que yo...”
G--------------------------
D--------------------------
A--6-6-6-------------------  x2
E--------6-6-6-4-4-4-6-6-6-


“Elías tú...”
G------------------------------------------
D------66-88-------------------------------
A--6-8-----------66-88-----44-66-----66-88-  x3
E------------6-8-------4-6-------6-8-------


G----
D----
A--6-
E----


Comentarios:
Luchia
nonos_34@hotmail.com
Calificar esta versión:
Aviso: Este fichero es trabajo propio de su transcriptor y representa su interpretación personal de la canción. El material contenido en esta página es para exclusivo uso privado, por lo que se prohibe su reproducción o retransmisión, así como su uso para fines comerciales.
Más versiones de El Elias, Panda
El Elias
acordes
El Elias
tablatura
El Elias
bajo
Descubre más canciones de Panda