Dices, Panda (tablatura)

Autor: Anónimo | 45233 visualizaciones

Ke onda, ezta ez mi primera tab
y puz ezta rolilla ez de panda,magnolia
y loz no m olvidez ezta bien chidita
ademaz ezta súper fazil.
Va dedicada a todoz miz cuatez de la prepa 1
I d la Latino..en especial a mi súper kuate
Isaac mi mejor amigo(brother)i zu banda
 y obvio a mi Mi AmOr.chikita(t amo demaziado)
ke m han apoiado en todo.
NO OLVIDEN KLIFIKR MI TAB XFA...GRAX

Intro
Guitarra 1

e------------------------------------------
b------0-----0-----0-------0---------------
g----0-----0-----0-------0---0-------------
d--3-----2-----0-------0-------0-----------
a--------------------2---------------------
E------------------------------------------

Guitarra 1

e---------------------------------------------------------------
b---------------------------------------------0---0---0----0----
g----0h20--0-------1h31--1-------0h20-0------0---0---0----0-0---
d------------32--3---------20-----------32—-3---2---0----0---0—- x2
a--3---------------------------3------------------------2-------
E---------------------------------------------------------------

Guitarra 2

e--0-------------0-------------0--------------------------
b--1-------------1-------------1--------------------------
g--0-------------2-------------0------------0---0---0---0-
d--2-------------3-------------2------------3---2---0---0-  x2
a--3-------------0-------------3------------------------2-
E--x-------------x-------------x--------------------------

Verso

Guitarra 1
       Dices..callar..cuando...vez.....bien...
e------------------------------------------------
b---------------1----1------------------1----1---
g---1----1------2----2------1----1------2----2---
d---0----0----3----3---3----0----0----3----3---3-
a-3----3---3--------------3----3---3-------------
E------------------------------------------------



Guitarra 1 y 2
  Dices... ... callar... preguntar...caera
e---0------------0----------0---------0---
b---1------------1----------1---------1---
g---0------------2----------0---------2---
d---2------------3----------2---------3---
a---3------------0----------3---------0---
E---x------------x----------x---------x---

se caerá... verdad... yo se... igual
e----1---------3--------1--------3--------
b----3---------3--------3--------3--------
g----2---------4--------2--------4--------
d----0---------5--------0--------5--------
a----x---------5--------x--------5--------
E----x---------3--------x--------3--------

Coro
  Es que nunca...podrás...para...alguien para cambiar
e----------0--------3------0--------------1--------
b----------1--------3------1--------------1--------
g----------0--------4------2--------------2--------  x2
d----------2--------5------2--------------3--------
a----------3--------5------0--------------3--------
E----------0--------3------x--------------1--------

Verso 2

.......Dices...ama........ama.........la razon
e------------------------------------------------
b---------------1----1------------------1----1---
g---1----1------2----2------1----1------2----2---
d---0----0----3----3---3----0----0----3----3---3-
a-3----3---3--------------3----3---3-------------
E------------------------------------------------

Guitarra 1 y 2
se caerá... miedo....cambio....negación
e---0------------0----------0---------0---
b---1------------1----------1---------1---
g---0------------2----------0---------2---
d---2------------3----------2---------3---
a---3------------0----------3---------0---
E---x------------x----------x---------x---

Yo no soy...piensas....mucho.....esperas
e----1---------3--------1-----------3----
b----3---------3--------3-----------3----
g----2---------4--------2-----------4----
a----x---------5--------x-----------5----
E----x---------3--------x-----------3----
Coro
  Es que nunca...podrás......para......... para cambiar
e----------0--------3---------0--------------1--------
b----------1--------3---------1--------------1--------
g----------0--------4---------2--------------2--------  x2
d----------2--------5---------2--------------3--------
a----------3--------5---------0--------------3--------
E----------0--------3---------x--------------1--------

Puente

Guitarra 1

e------------------------------------------
b------0-----0-----0-------0---------------
g----0-----0-----0-------0---0-------------
d--3-----2-----0-------0-------0-----------  x2
a--------------------2---------------------
E------------------------------------------

Guitarra 1 y 2
e-------------------------------------
b-------------------------------------
g----0---0---0---0--------------------
d----3---2---0---0-------------------- x2
a----------------2--------------------
E-------------------------------------

Coro final

  Es que nunca...podrás...para...alguien para cambiar
e----------0--------3------0--------------1--------
b----------1--------3------1--------------1--------
g----------0--------4------2--------------2--------  x2
d----------2--------5------2--------------3--------
a----------3--------5------0--------------3--------
E----------0--------3------x--------------1--------


e------------------------------------------
b------0-----0-----0-------0---------------
g----0-----0-----0-------0---0-------------
d--3-----2-----0-------0-------0-----------  x2
a--------------------2---------------------
E------------------------------------------

e-------------------------------------
b-------------------------------------
g----0---0---0---0--------------------
d----3---2---0---0-------------------- x2
a----------------2--------------------
E-------------------------------------


Letra:
Dices que es mejor callar
aunque por primera vez
se den las cosas bien

dices que es mejor callar
y ya no preguntar
pues todo se caerá
todo todo se caerá y así toda la verdad
por que yo se también que las mentiras son igual

lo mejor es que nunca
nunca me podrás cambiar
vete y busca alguien para tratar
lo mejor es que nunca
nunca me podrás cambiar
vete y busca alguien para tratar

dices que uno es lo que ama
y no lo que al mundo ama
yo creo que tienes la razón

dices que yo tengo miedo de adaptarme al cambio
pues no es miedo es solo negación
yo no soy eso que piensas
ni mucho menos lo que esperas

lo mejor es que nunca
nunca me podrás cambiar
vete y busca alguien para tratar
lo mejor es que nunca
nunca me podrás cambiar
vete y busca alguien para tratar

Puzz ai zta! , zta fazil no??
Cualquier Queja,sugerencia o
duda ez bienvenida kamara?
 andro.blink182@hotmail.com
I tambn zi kieren un guitarro
Punk i eze pdo...puzz tambn
 bezoz a mi
NOVIA k la AMOOOO
Calificar esta versión:
Aviso: Este fichero es trabajo propio de su transcriptor y representa su interpretación personal de la canción. El material contenido en esta página es para exclusivo uso privado, por lo que se prohibe su reproducción o retransmisión, así como su uso para fines comerciales.
Más versiones de Dices, Panda
Dices
acordes
Dices (ver 2)
acordes
Dices
tablatura
Descubre más canciones de Panda