Dices, Panda (acordes)

Autor: Anónimo | 26803 visualizaciones

cdmffag
BUENO PSS ESTA ES LA VERSION KE MAS S ACERCA A LA ORIGINAL
YA QUE LA OTRA NO SE ESKUCHABA BIEN.
ADEMAS ESTA ROLA ES DE MAGNOLIA Y LOS NO ME OLVIDES
ESTA CHINGONA...

Intro

guiarra 1:  C - F - C - F

guitarra 2:

e------------------------------------------
b------1-----1-----0-------0---------------
g----2-----0-----0-------0---0-------------
d--3-----2-----0-------0-------0-----------
a--------------------2-----------2-3-------
E------------------------------------------


e---------------------------------
b---------------------------------
g-----------------5-7-5---5-2-0---
d-5-7-5---5-3-2-3----------------- X2
a-------------------------------3-
E---------------------------------


e------------------------------------------
b------1-----1-----0-------0---------------
g----2-----0-----0-------0---0-------------
d--3-----2-----0-------0-------0-----------
a--------------------2-----------2-3-------
E------------------------------------------


  C                   Fa                      C
Dices que es mejor callar cuando por primera vez
                 Fa       C
salen las cosas bien...
                      Fa
dices que es mejor callar
             C                     Fa
y ya no preguntar, pues todo se caerá
               Dm                     G
todo todo se caerá, y así toda la verdad
               Dm                           G
aunque yo se también que las mentiras son igual...


CORO:

                  C                G
Lo mejor es que nunca, nunca me podrás cambiar
                      Dm
vete y busca alguien para tratar
                       Fa
vete y busca alguien para tratar
                  C                G
Lo mejor es que nunca, nunca me podrás cambiar
                      Dm
vete y busca alguien para tratar
                      Fa
vete y busca alguien para tratar...


 C                       Fa                      C
Dices que uno es lo que ama y no lo que aun no aman
                    Fa           C
yo creo que tienes la razón...
                     Fa                       C
Dices que yo tengo miedo de adaptarme al cambio
                            Fa          Dm
pues no es miedo es solo negación...
                     G           Dm
yo no soy eso que piensas...
                        G
y mucho menos lo que esperas...



CORO:

                  C                G
Lo mejor es que nunca, nunca me podrás cambiar
                      Dm
vete y busca alguien para tratar
                       Fa
vete y busca alguien para tratar
                 C                G
Lo mejor es que nunca, nunca me podrás cambiar
                      Dm
vete y busca alguien para tratar
                      Fa
vete y busca alguien para tratar...



e-----------------------------------
b------1-----1-----0-------0--------
g----2-----0-----0-------0---0------ X2
d--3-----2-----0-------0-------0----
a--------------------2-----------0--
E-----------------------------------


e--x----x----x---x-
b--1----1----1---x-
g--2----0----0---0-  x2
d--3----2----0---0-
a--x----x----x---2-
E--x----x----x---x-



CORO:
                  C               G
Lo mejor es que nunca, nunca me podrás cambiar
                      Dm
vete y busca alguien para tratar
                      Fa
vete y busca alguien para tratar
                  C               G
Lo mejor es que nunca, nunca me podrás cambiar
                      Dm
vete y busca alguien para tratar
                       Fa
vete y busca alguien para tratar...

guitarra 1:  C - F - C - F

guitarra 2:


e--------------------------------
b--------------------------------
g------------------5-7-5---5-2-0--
d--5-7-5---5-3-2-3---------------
a-3------------------------------
E--------------------------------


e--------------------------------
b--------------------------------
g--------------------------------
d--5-7-5---5-3-2-----------------
a-3------------------------------
E--------------------------------


e-----------------------
b------1-----1-----0----
g----2-----0-----0------
d--3-----2-----0--------
a--------------------2--
E-----------------------

sale espero ke les guste
porlomenos se escucha mejor ke la otra ok.
Calificar esta versión:
Aviso: Este fichero es trabajo propio de su transcriptor y representa su interpretación personal de la canción. El material contenido en esta página es para exclusivo uso privado, por lo que se prohibe su reproducción o retransmisión, así como su uso para fines comerciales.
Más versiones de Dices, Panda
Dices
acordes
Dices (ver 2)
acordes
Dices
tablatura
Descubre más canciones de Panda