El Padrino, Nino Rota (tablatura) (ver 2)

Autor: danieelabc | 30185 visualizaciones



|---0-3-2-0-3-0-2-0------|---0-3-2-0-3-0-2-0------|
|-0-----------------1-3-0|-0-----------------0----|
|------------------------|---------------------3-2|
|------------------------|------------------------|
|------------------------|------------------------|
|------------------------|------------------------|
|------------------------|------------------------|

|------0-2--------0|
|----1--------0-4--|
|-0---------0------|
|------------------|
|------------------|
|------------------|





Comentarios del colaborador: VALOREN AMIGOS Y ESPERO QUE LES GUSTE

Calificar esta versión:
Aviso: Este fichero es trabajo propio de su transcriptor y representa su interpretación personal de la canción. El material contenido en esta página es para exclusivo uso privado, por lo que se prohibe su reproducción o retransmisión, así como su uso para fines comerciales.
Más versiones de El Padrino, Nino Rota
El Padrino
tablatura
El Padrino (ver 2)
tablatura
Descubre más canciones de Nino Rota