El Padrino, Nino Rota (tablatura)

Autor: jojoto | 28426 visualizaciones

e-----1-0---1---0--------------1-0---1---0----------------0-----
b---3-----3---3---3---1------3-----3---3---3------------2-------
g-2-----------------3---2--2-----------------2-1-0--0-3-----0-3-
d---------------------------------------------------------------

e---------------------------------------0-----------------------
b-2-3-------1-----1-------------3-3-2-1---3-------1-------------
g-------------3-2---3-3-2-2------------------3-2-2--2-2-0-0-3-1-
d------0-3--------------------0---------------------------------
a--------------------------4------------------------------------

e---------------------------------------------------------------
b-2------------------------------------------------------------
g---------------------------------------------------------------
d---------------------------------------------------------------


e-----1-0---1---0--------------1-0---1---0----------------0-----
b---3-----3---3---3---1------3-----3---3---3------------2-------
g-2-----------------3---2--2-----------------2-1-0--0-3-----0-3-
d---------------------------------------------------------------

e---------------------------------------------------------------
b-2-3-----1-----1----------2-3----------------------------------
g-----------3-2---3--3-2--2------------------------------------
d------0-3------------------------------------------------------



la cancion no es copiada
Calificar esta versión:
Aviso: Este fichero es trabajo propio de su transcriptor y representa su interpretación personal de la canción. El material contenido en esta página es para exclusivo uso privado, por lo que se prohibe su reproducción o retransmisión, así como su uso para fines comerciales.
Más versiones de El Padrino, Nino Rota
El Padrino
tablatura
El Padrino (ver 2)
tablatura
Descubre más canciones de Nino Rota