Primera Cosa Bella, Nicola Di Bari (tablatura) (ver 2)

Autor: Anónimo | 42348 visualizaciones

este es el requiinto que va en medio para darle mas 
ritmo a la canción
echenle ganas pelaos!!!

1]--5-5--3--8--5--3-3--2--5-5--7--10-10-10-10-10--11--10-10--7-7-7-7-
2]--7-7--5--7--7--5-5--3--7-7--8--11-11-11-11-11--13--11-11--8-8-8-8-
3]-------------------------------------------------------------------
4]-------------------------------------------------------------------
5]-------------------------------------------------------------------
6]-------------------------------------------------------------------



1]--10--7-7--10--7-7--5-5-5-5--7--5-5--3-3-3-3--5--3--2--------------
2]--11--8-8--11--8-8--7-7-7-7--8--7-7--5-5-5-5--7--5--3--------------
3]-------------------------------------------------------------------
4]-------------------------------------------------------------------
5]-------------------------------------------------------------------
6]-------------------------------------------------------------------



dedicado a la cosa mes bella que conosco
monica
Calificar esta versión:
Aviso: Este fichero es trabajo propio de su transcriptor y representa su interpretación personal de la canción. El material contenido en esta página es para exclusivo uso privado, por lo que se prohibe su reproducción o retransmisión, así como su uso para fines comerciales.
Más versiones de Primera Cosa Bella, Nicola Di Bari
Primera Cosa Bella
acordes
Primera Cosa Bella
tablatura
Primera Cosa Bella (ver 2)
tablatura
Descubre más canciones de Nicola Di Bari