Primera Cosa Bella, Nicola Di Bari (tablatura)

Autor: Anónimo | 24728 visualizaciones

            'PRIMERA COSA BELLA'
              (Nicola Di Bari)
             *VERSIÓN ORIGINAL*

=INTRO=
E-----------------------------
B-----------------------------
G-----------------------------
D----3---------3-------3------
A--4-----4---------4-------4--
E------4---------4-------4----

=ESTROFA 1=
G#7            C#                             Fm
HOY TOMO LA GUITARRA, G----------  Y TOCO POR TI, G---------
                      D--3-------                 D--3------
                      A-------4--                 A----3-1--
                      E----4-----                 E---------

A#7            F#                  C#
NO SÉ TOCAR SIQUIERA, ÉSTA ES LA VEZ PRIMERA,
             G#7
MAS TOCO POR TI. G---------
                 D---------
                 A--6---6--
                 E----4----

=ESTROFA 2=
               C#                  Fm
MI CORAZÓN HOY CANTA, MI VOZ ESTÁ ALEGRE,
A#7            F#                 C#
AMORE, AMORE, AMORE TAN SÓLO SÉ DECIRTE,
                G#7
MAS TÚ COMPRENDERÁS

=ESTROFA 3=
                  C#                  Fm
LOS PRADOS TIENEN FLORES QUE HUELEN A TI,
A#7          F#                        C#
PODRÍA HOY MORIRME, DESPUÉS DE HABERTE VISTO,
           G#7
NO PIDO YA MÁS...

=CORO=
   F#
PRIMERA COSA BELLA

QUE ENCUENTRO YO EN MI VIDA
   G#7                       C#
HA SIDO TU SONRISA, HAS SIDO TÚ,
   F#
AL FIN TENGO UNA ESTRELLA,

MI NOCHE SE ILUMINA
  G#7                 C#
ESTOY ENAMORADO DE SU LUZ

=ESTROFA 2= (ahora la estrofa 2 se repite pero con punteos)
G#7            C#
MI CORAZÓN HOY CANTA, E--------------------------------------------
                      B--14-14-14-13-13-13-11-11-11----------------
                      G-----------------------------13-13-11-10----
                      D--------------------------------------------
                      A--------------------------------------------
                      E--------------------------------------------

             Fm
MI VOZ ESTÁ ALEGRE, E--------------------------
                    B--13-13-13-11-11-11-------
                    G-------------------13-12--
                    D--------------------------
                    A--------------------------
                    E--------------------------

A#7            F#                 C#
AMORE, AMORE, AMORE TAN SÓLO SÉ DECIRTE,
                G#7
MAS TÚ COMPRENDERÁS

=PUNTEO=
            C#                      Fm                          A#7
E--------------- --------- ---------4- -16-18-16-14-16-14-13-14-13-
B-6-6-4-7-6-4--- --------- -6-6-6-7--- ----------------------------
G-------------6- --------- ----------- ----------------------------
D--------------- -------3- ----------- ----------------------------
A--------------- -4--6---- ----------- ----------------------------
E--------------- --------- ----------- ----------------------------

            F#              C#           G#7
E-4-4-4-6-4-4--- --------------- -----------
B-------------7- -7-7-7-9-7-7-6- -6-6-7-6---
G--------------- --------------- ---------8-
D--------------- --------------- -----------
A--------------- --------------- -----------
E--------------- --------------- -----------

=CORO=
   F#
PRIMERA COSA BELLA

QUE ENCUENTRO YO EN MI VIDA
   G#7                       C#
HA SIDO TU SONRISA, HAS SIDO TÚ,
   F#
AL FIN TENGO UNA ESTRELLA,

MI NOCHE SE ILUMINA,
  G#7                 C#
ESTOY ENAMORADO DE SU LUZ

=ESTROFA 2= (ahora debe tocar pero bajando un poco el ritmo)
               C#
MI CORAZÓN HOY CANTA, E--------------------------------------------
                      B--14-14-14-13-13-13-11-11-11----------------
                      G-----------------------------13-13-11-10----
                      D--------------------------------------------
                      A--------------------------------------------
                      E--------------------------------------------

             Fm
MI VOZ ESTÁ ALEGRE, E--------------------------
                    B--13-13-13-11-11-11-------
                    G-------------------13-12--
                    D--------------------------
                    A--------------------------
                    E--------------------------

A#7            F#                 C#
AMORE, AMORE, AMORE TAN SÓLO SÉ DECIRTE,
                G#7                    C#                   C#
MAS TÚ COMPRENDERÁS... MAS TÚ COMPRENDERÁS... E-------------1>>>>>>
                                              B-6-6-4-7-6-4-2>>>>>>
                                              G-------------1>>>>>>
                                              D-------------3>>>>>>
                                              A--------------------
                                              E--------------------

===============================FIN=================================

ALGUNAS INDICACIONES:

C = DO
D = RE
E = MI
F = FA
G = SOL
A = LA
B = SI

# = Acorde sostenido
m = Acorde menor
7 = Séptima Dominante

(Ejemplo: G#7 es SOL sostenido séptima dominante)
(Ejemplo: Fm es FA menor)

Posturas de acordes:

     C#     ó      C#     -     Fm      -     A#7     ó     A#7
===========   ===========   ===========   ===========   ===========
E A D G B E   E A D G B E   E A D G B E   E A D G B E   E A D G B E
X X 3 1 2 1   X 4 6 6 6 4   1 3 3 1 1 1   X 1 3 1 3 1   6 8 6 7 6 6


     F#     ó      F#     -     Fm      -     G#7     ó     G#7
===========   ===========   ===========   ===========   ===========
E A D G B E   E A D G B E   E A D G B E   E A D G B E   E A D G B E
2 4 4 3 2 2   X 9 8 6 7 6   X X 3 5 6 4   4 6 4 5 4 4   X X 6 8 7 8

Hola, mi nombre es Rodrigo, soy chileno y espero que te guste mucho
esta canción tan bonita del italiano Nicola DiBari pues, aunque los
acordes me fueron fáciles de sacarlos, los punteos fueron los más
complicados de sacar ya que mi intención es entregarles siempre un
trabajo realmente bueno como el que les ofresco en esta
transcripción (es lo más semejante que hay a la versión original)
disfrútala y un saludo pal Marco,Joc,Simón,Aaron,Claudia,Laura,Gaby
Lord,K-Chan,AAF,Chi-K,Maluto,a los SweetRevenge, a su vocalbajista
mi primo Jonathan y besito para mi polola P.Andrea, te quiero mucho
bebé.

              EN MEMORIA DE ANDREA SUSANA MUÑOZ ALARCÓN
                (*Abril 20,1989 - Diciembre 10,2005+)
          'Que el Señor te tenga en la gloria hermanita mía'

                      'Que el Señor les Bendiga'
Feb.18, 2005                                 ...El Último Romántico
=========================www.aplicale.tk===========================
Calificar esta versión:
Aviso: Este fichero es trabajo propio de su transcriptor y representa su interpretación personal de la canción. El material contenido en esta página es para exclusivo uso privado, por lo que se prohibe su reproducción o retransmisión, así como su uso para fines comerciales.
Más versiones de Primera Cosa Bella, Nicola Di Bari
Primera Cosa Bella
acordes
Primera Cosa Bella
tablatura
Primera Cosa Bella (ver 2)
tablatura
Descubre más canciones de Nicola Di Bari