Cantares, Nicho Hinojosa (tablatura) (ver 2)

Autor: Anónimo | 34057 visualizaciones

En realidad el nombre de la canción es 'Cantares' y no CAMINANTE.
La canción va arpegiada y en las figuras C  C/B  C/A  G se  
tablatura así con la posición de C, anteponiendo un bajeo:

       C      C/B    C/A  G          G4      D4      C5
E ------------------------1-|       E - 3   E - 3   E - 3 
B ------------------------0-|       B - 1   B - 3   B - 1
G ---------0------0-------0-|       G - 0   G - 2   G - 0
D -------2------0---------0-|       D - 0   D - 0   D - 2
A -0-2-3------2------0----2-|       A - 2   A - 0   A - 3
E ------------------------3-|       E - 3   E - X   E - 0


INTRO
   G                 Em                    Am      D               
E -------------------------------0-----------3-3--------3-2--------
B -0-1-1-0--------0------------0---0-------1-1-1------3-----3------
G -0-----0------0------------0-------0-----0-2-2----2---------2----
D ------------0------------0-----------4-----2-2--0-------------0--
A -------2-------------2s4----------------0------------------------
E -3--------3--------0---------------------------------------------

   G  G4       G
E ------------------------------------------------|
B ----1--0--1--0--1--0--------1-----------0-------|
G ----2--0--2--0------------0---0-------0---0-----|
D -0----------------------0-------0---0-------0---|
A ------------------------------------------------|
E -3-----------3--------3-----------3-----------3-|


  
G           Em        C        D            G  G4
Todo pasa y todo queda, pero lo nuestro es pasar
G              Em  C        D      G   G4
pasar haciendo camino, camino sobre la mar
G                Em   C      D          G      
nunca perseguí la gloria, ni dejar en la memoria
       C             D   D4  D  C
de los hombres mi canción...



G                 Em   C         D        G
Yo amo los mundos sutiles, ingrávidos y gentiles
      C      D    G   C  C/B  C/A  G  C  C/B  C/A  
como pompás de jabón...
G                Em   C            D        G   G4
me gusta verlos pintarse, de azul y grana al volar
                Em     C         D             G    G4
bajo el cielo azul templar, súbitamente y quebrarse
G                Em   C  D  G  C/B  C/A  G  
nunca perseguí la gloria...



HABLADO
 G               Em                          C  D
'Caminante son tus huellas del camino y nada más
      G                           Em
al andar se hace el camino y al volver la vista atrás
C         D                G                   G4  G
se ve la senda que nunca se ha de volver a pisar
            Em      D4 D                 G   C  C/B  C/A  G
caminate no hay camino, se hace camino al andar . . .'



G                 Em        
Hace algún tiempo en ese lugar 
C             D          G            G4
donde hoy los bosques se visten de espino
G                 Em      
se oyó la voz de un poeta gritar
C    D                G      C            D            G
caminante no hay camino... se hace camino al andar
G              C       D  G  C5 D
golpe a golpe, verso a verso...



G              Em
Murió el poeta lejos del hogar,
C           D              G     G4
le cubre el polvo de un país vecino
G            Em
al alejarse le vieron llorar
C    D                G      C            D            G
caminante no hay camino... se hace camino al andar
G              C       D  G  C5  D
golpe a golpe, verso a verso...



G                   Em
Cuando el jilguero no quiere cantar,
C          D      G         G4 
cuando el poeta es un peregrino
G                Em
cuando de nada nos sirve rezar
C    D                G      C            D            G
caminante no hay camino... se hace camino al andar
G              C       D  G 
golpe a golpe, verso a verso,
G              C       D  G 
golpe a golpe, verso a verso,
G              C       D  G 
golpe a golpe, verso a verso,
G              C       D  G  C C/B  C/A  G 
golpe a golpe, verso a verso.
Calificar esta versión:
Aviso: Este fichero es trabajo propio de su transcriptor y representa su interpretación personal de la canción. El material contenido en esta página es para exclusivo uso privado, por lo que se prohibe su reproducción o retransmisión, así como su uso para fines comerciales.
Más versiones de Cantares, Nicho Hinojosa
Cantares
acordes
Cantares (ver 2)
acordes
Cantares
tablatura
Cantares (ver 2)
tablatura
Descubre más canciones de Nicho Hinojosa