Cantares, Nicho Hinojosa (tablatura)

Autor: Anónimo | 28955 visualizaciones

Bueno pues esta es una corrección de las otras tabulaciones
el intro lo puse tal y komO va, y lo dividi en partes para 
k se facilitara mas kuando lo esten sakando.
*Los notas k estan en paréntesis son notas k kasi no se eskuchan 
esta kancion tiene vida mas por su bajeo k por la melodia
por eso es k kasi no se eskuchan las notas agudas.
                 
                 ºº
              ¨¨(``)¨
                 VV

INTRO:

     G                                 Em                D9              D9     
e.|-------------------|---------------------0---0---|---------3-3-|----2h3h2-----------------------0---|e
b.|--0-1---1--1h0-----|------0------------0---3---3-|--3-(3)--3-3-|-----------3------1--0--0h1--0----0-|b
g.|------0--------(0)-|-----0-----------0-----------|-------------|------------2-----2--2--2----2------|g
D.|-------------------|----0--------2h4-------------|--0-(0)------|--0---------------------------------|D
A.|-------------------|---2-------------------------|-------------|------------------------------------|A
E.|--3----------------|--3--------0-----------------|-------------|----------------3-------------------|E


        G
e.|------0------0--|e
b.|-----0------0---|b
g.|----0------0----|g
D.|---0------0-----|D
A.|----------------|A
E.|--3------3------|E


        G            Em        C             D              G                        Em
e.|------0--------------0---------------------(2)-----------3----------(0)---------------0------|e
b.|-----0--------------0---------(1)---------(3)------------3---------(0)---------------0-------|b
g.|----0--------------0---------(0)---------(2)--------0----0--------(0)---------------0--------|g
D.|---0--------------2---------(2)---------0----------0-----0-------(0)---------------2---------|D
A.|---------------------------3-----------------------------2-----------------------------------|A
E.|--3--------------0--------------------------------3------3------3-----------------0----------|E

       Todo pasa y todo queda, pero lo nuestro es pasar,            pasar haciendo caminos

  
    C           D              G                    Em         C          D           G
e.|----------------(2)--------3--------3------------------0-----------------(2)-----------3------|e
b.|----(1)--------(3)-------3-3-------3------------------0--------(1)------(3)-----------3-------|b
g.|---(0)--------(2)-------0---------0------------------0--------(0)-------2------------0--------|g
D.|---2---------0---------0---------0------------------2---------2--------0------------0---------|D
A.|--3----------------------------------------------------------3--------------------------------|A
E.|----------------------3---------3------------------0-------------------------------3----------|E

        Caminos, sobre la mar,     nunca perseguí la gloria,     ni     dejar en la memoria

           C                D             C            G                 Em         C        D
e.|--------------------------2--3--2--------0-----------------3-------------0----------------(2)-|e
b.|----------(1)--(1)-------3--------------1---------------3---------------0---------1------(3)--|b
g.|---------(0)-(0)-(0)----2--------------0-------------0-----------------0---------0-------2----|g
D.|---------2-------------0--------------2-----------0-------------------2---------2-------0-----|D
A.|--0--2--3----------------------------3-----------------------------------------3--------------|A
E.|-----------------------------------------------3---------------------0------------------------|E

    De los hombres mi canción                      Yo amo los mundos sutiles,      ingrávidos

       G                        G        C        C/B    C/A      G        C        C/B     C/A
e.|-------3------------------------3-------------------------------3-----------------------------|e
b.|------3------------------------3-------(1)-----(1)-----(1)-----3---------(1)-----(1)-----(1)--|b
g.|-----0------------------------0-------(0)-----(0)-----(0)-----0---------(0)-----(0)-----(0)---|g
D.|----0------------------------0-------(2)-----(2)-----(2)-----0---------(2)-----(2)-----(2)----|D
A.|----------0-2---3-2---0-------------3-------2-------0-----------------3-------2-------0-------|A
E.|---3----------------------3-3-------------------------------3---------------------------------|E

Y gentiles   como pompas de jabón
   
   G                    Em          C          D         G                               Em
e.|------3--------------------0-----------------(2)------------v3-3^------3--------------------0-|e
b.|-----3--------------------0------(1)--------(3)---------3---v3-3^-----3--------------------0--|b
g.|----0--------------------0------(0)--------(2)---------0----v0-0^----0--------------------0---|g
D.|---0--------------------2------(2)--------0-----------0-----v0-0^---0--------------------2----|D
A.|------------------------------3-----------------------------v2-2^-----------------------------|A
E.|--3--------------------0-----------------------------3------v3-3^--3--------------------0-----|E

      Me gusta verlos pintarse    de azul y grana al volar          bajo el cielo azul temblar

      C       D           G                                  Em         C        D       G
e.|------------(3)---------3-----v3-3^---------3-----------------0----------------(2)------3-----|e
b.|----(1)----(2)---------3------v3-3^--------3-----------------0---------(1)----(3)------3------|b
g.|---(0)----(3)---------0-------v0-0^-------0-----------------0---------(0)----(2)------0-------|g
D.|--(2)-----0----------0--------v0-0^------0-----------------2---------(2)-----0-------0--------|D
A.|--3---------------------------v2-2^---------------------------------3-------------------------|A
E.|--------------------3---------v3-3^-----3-----------------0-------------------------3---------|E

      Súbitamente y quebrarse             nunca perseguí la gloria

           C        C/B    C/A      G  
e.|----------------------------------3-----|e
b.|-----------1------1-------1------3------|b
g.|----------0------0-------0------0-------|g
D.|---------2------2-------2------0--------|D
A.|--0--2--3------2-------0----------------|A
E.|------------------------------3---------|E

                                            
***Hablado
      G              Em                            C         D      G
e.|------3--------------0-------------------------------------(2)------3--------------------------|e
b.|-----3--------------0-----------------------------(1)-----(3)------3---------------------------|b
g.|----0--------------0-----------------------------(0)-----(2)------0----------------------------|g
D.|---0--------------2-----------------------------(2)-----0--------0-----------------------------|D
A.|-----------------------------------------------3-----------------------------------------------|A
E.|--3--------------0----------------------------------------------3------------------------------|E

'Caminante son tus huellas del camino y nada más,           al andar se hace el camino

         Em                 C         D                   G
e.|----------0-------------------------(2)-------------------3--------v3-3^-----------------------|e
b.|---------0------------------1------(3)-------------------3---------v3-3^-----------------------|b
g.|--------0------------------0-------2--------------------0----------v0-0^-----------------------|g
D.|-------2------------------2-------0--------------------0-----------v0-0^-----------------------|D
A.|-------------------------3-----------------------------------------v2-2^-----------------------|A
E.|------0-----------------------------------------------3------------v3-3^-----------------------|E

Y al volver la vista atrás, se ve la senda  que nunca se ha de pisar,

       G                 Em      D    D4
e.|------3-----------------0-----2-------3------------3-------------------------------------------|e
b.|-----3-----------------0------3-------3------------3-------------------------------------------|b
g.|----0-----------------0-------2-------2------------0-------------------------------------------|g
D.|---0-----------------2--------0-------0------------0-------------------------------------------|D
A.|---------------------------------------------------2-------------------------------------------|A
E.|--3-----------------0------------------------------3-------------------------------------------|E

   Caminante no hay camino, se hace el camino al andar


G                 Em        
Hace algún tiempo en ese lugar 

C             D          G            G-C
donde hoy los bosques se visten de espino
G                 Em      
se oyó la voz de un poeta gritar

C    D                G      C            D            G
caminante no hay camino, se hace camino al andar

G              C       D  G  C D
golpe a golpe, verso a verso



G              Em
Murió el poeta lejos del hogar

C           D              G     C
le cubre el polvo de un país vecino
G            Em
al alejarse le vieron llorar

C    D                G      C            D            G
caminante no hay camino, se hace camino al andar
G              C       D  G  C  D
golpe a golpe, verso a verso


G                   Em
Cuando el jilguero no quiere cantar

C          D      G         G-C 
cuando el poeta es un peregrino

G                Em
cuando de nada nos sirve rezar

C    D                G      C            D            G
caminante no hay camino, se hace camino al andar

G              C       D  G 
golpe a golpe, verso a verso

G              C       D  G 
golpe a golpe, verso a verso

G              C       D  G 
golpe a golpe, verso a verso

G              C       D  G  C C/B  C/A  G 
golpe a golpe, verso a verso


Espero les haya gustado
Un saludo al 3ºC del kolegio Kristobal kolOn
en Verakruz, Ver
Calificar esta versión:
Aviso: Este fichero es trabajo propio de su transcriptor y representa su interpretación personal de la canción. El material contenido en esta página es para exclusivo uso privado, por lo que se prohibe su reproducción o retransmisión, así como su uso para fines comerciales.
Más versiones de Cantares, Nicho Hinojosa
Cantares
acordes
Cantares (ver 2)
acordes
Cantares
tablatura
Cantares (ver 2)
tablatura
Descubre más canciones de Nicho Hinojosa