A Veces, Nicho Hinojosa (tablatura) (ver 3)

Autor: Anónimo | 38793 visualizaciones

No estoy seguro de que sea el correcto, pero si el mas cercano 

Intro:

e|-7-8-10------15--10---10------17---15-14-15-----8----7-5-7--|
B|-----------8--------8-------7-----------------8---8---------|
G|---------7----------------7-----------------9---------------|

e|----------7-8-10------15-10---10------17--15--15-14-15--|
B|---8-10-------------8-------8-------7-------------------|
G|-9------7---------7---------------7---------------------|

e|-----------15--7-5-7------5--3---2-|
B|---8-9-10---------------7------3---|
G|-9--------------------7------------|


Intermedio:

e|-7-8-10-10------10-----7-8-10-10------7-8-17--7-8-10-10-8-8-7-8--7-8-10-8-7-5-|
B|--------------8------8--------------8-----------------------------------------|
G|------------7------7--------------7-------------------------------------------|


Final:

e|-----------3-7-10--15-|
B|---------3---------12-|
G|-------4-----------12-|
D|-----5----------------|
A|---5------------------|
E|-3--------------------|

Saludos a San Juan del Río, Qro.
Calificar esta versión:
Aviso: Este fichero es trabajo propio de su transcriptor y representa su interpretación personal de la canción. El material contenido en esta página es para exclusivo uso privado, por lo que se prohibe su reproducción o retransmisión, así como su uso para fines comerciales.
Más versiones de A Veces, Nicho Hinojosa
A Veces
acordes
A Veces (ver 2)
acordes
A Veces
tablatura
A Veces (ver 2)
tablatura
A Veces (ver 3)
tablatura
Descubre más canciones de Nicho Hinojosa