A Veces, Nicho Hinojosa (tablatura) (ver 2)

Autor: Anónimo | 31481 visualizaciones

Esta es en un concierto, espero que les guste. Quiero que sepan que ésta es mi
primer tab y que se la dedico a una persona que fue parte importante para que
yo me iniciara en este grandioso mundo de la guitarra su nombre es Stephanie y
quiero que sepan que la quiero mucho...

BUENO, AQUI ESTO ES LO IMPORTANTE.

INTRO:
e|----------------------------------------------------------------|
B|----0-1-0-1-0-1-0-1-0h1p0p1p0p1------------------0-1------------|
G|----------------------------------------------------------------|
D|----------------------------------------------------------------|
A|----------------------------------------------------------------|
E|----------------------------------------------------------------|


     G               Bm7                  C/G          C           D
e|-----------3-------------------5---5p3-------3-2-0----0----0-0-0--2-2-2-------------|
B|---3-------3--3----3----------3-------------1------1--1----1-1-1--3-3-3------0-1----|
G|---0-0---0----0----2-2---2---2---2---------0----------0----0-0-0--2-2-2-------------|
D|-------0---------------4----4-------------2-----------2----2-2-2--0-0-0-------------|
A|-------------------2---------------------3------------3----3-3-3--------------------|
E|---3--------------------------------------------------------------------------------|


     G               Bm7                  C/G          C           D      C
e|-----------3-------------------5---5p3-------3-2-0----0----0-0-0--2-2-2--0--------|
B|---3-------3--3----3----------3-------------1------1--1----1-1-1--3-3-3---1-------|
G|---0-0---0----0----2-2---2---2---2---------0----------0----0-0-0--2-2-2----0------|
D|-------0---------------4----4-------------2-----------2----2-2-2--0-0-0-----2-----|
A|-------------------2---------------------3------------3----3-3-3-------------3----|
E|---3------------------------------------------------------------------------------|



              G
Porque que a veces te pienso
                    Bm7
porque que a veces te lloro
                 C
porque que a veces no encuentro las palabras
                  D
para decirte que eres todo.


                     G
Y es que estás en mi mente
            Bm7
cada vez que respiro
          C
es que vida no me importa nada
                    D
cuando no estás conmigo,
          Bm7          G           C
quiero sentirte aquí mis brazos todavía
     Bm7        G            C
enamorarme más de ti, hacerte mía,
                D
como la primera vez.


              G
Porque a veces te pierdo
              Bm7
porque a veces te encuentro
            C
escondida en la jungla de mis sueños
       Am7          D
en mis noches de desvelo
         C         C9/B                      D
porque tu eres mi locura, mi ansiedad y mi pasión.


       Bm7         G
Porque no yo no entiendo
              Bm7
cuando grita el silencio
             C
ni el orgullo que frena nuestras manos
                    D
a la caricia del perdón,
       Bm7        G
porque no existen reglas
             Bm7
ni el romance perfecto
           C
porque la historia que vivimos
                    D
fue escrita por los dos,
          Bm7               G           C
yo quiero sentirte aquí en mis brazos todavía
     Bm7          G            C
enamorarme más de ti, hacerte mía,
               D               C
como la primera ve-e-e-ez.


Pequeño riff
e|------------------|
B|--0-0-0-1-3-3-----|
G|------------------|
D|------------------|
A|------------------|
E|------------------|

G  Bm7  C   D  Dsus4  D  Dsus4


          Bm7             G           C    
Calificar esta versión:
Aviso: Este fichero es trabajo propio de su transcriptor y representa su interpretación personal de la canción. El material contenido en esta página es para exclusivo uso privado, por lo que se prohibe su reproducción o retransmisión, así como su uso para fines comerciales.
Más versiones de A Veces, Nicho Hinojosa
A Veces
acordes
A Veces (ver 2)
acordes
A Veces
tablatura
A Veces (ver 2)
tablatura
A Veces (ver 3)
tablatura
Descubre más canciones de Nicho Hinojosa