Sadness And Sorrow, Naruto (tablatura) (ver 2)

Autor: guitar_man10 | 47849 visualizaciones



----2-0------0-3-5-0---3----2-3-2------7---5-------------- 
--------0-------------------------3---------------------- 
--------------------------------------------------------- 
--------------------------------------------------------- 
--------------------------------------------------------- 
--------------------------------------------------------- 

----2-0------0-3-5-0---3----2-3-2------------------------- 
--------0-------------------------3----5------------------ 
--------------------------------------------------------- 
--------------------------------------------------------- 
--------------------------------------------------------- 
--------------------------------------------------------- 

----0-2-3---5-7--0--3-2---------0-2-3---5-7--0--3-2-----7-5--- 
-------------------------3--5------------------------3------ 
--------------------------------------------------------- 
--------------------------------------------------------- 
--------------------------------------------------------- 
--------------------------------------------------------- 

---5--7--0--3--2------------0-2-3---5-7--0--3-2--------- 
------------------3---5---------------------------3--5-----5- 
--------------------------------------------------------- 
--------------------------------------------------------- 
--------------------------------------------------------- 
---------------------------------------------------------





Comentarios del colaborador: . . . .

Calificar esta versión:
Aviso: Este fichero es trabajo propio de su transcriptor y representa su interpretación personal de la canción. El material contenido en esta página es para exclusivo uso privado, por lo que se prohibe su reproducción o retransmisión, así como su uso para fines comerciales.
Más versiones de Sadness And Sorrow, Naruto
Sadness And Sorrow
tablatura
Sadness And Sorrow (ver 2)
tablatura
Sadness And Sorrow (ver 3)
tablatura
Sadness And Sorrow (ver 4)
tablatura
Sadness And Sorrow (ver 5)
tablatura
Descubre más canciones de Naruto